PDF Archive

Easily share your PDF documents with your contacts, on the Web and Social Networks.

Send a file File manager PDF Toolbox Search Help Contact



Marilyn Manson MA02 The Dope Show .pdf



Original filename: Marilyn Manson - MA02 The Dope Show.pdf
Title: Marilyn Manson - MA02 The Dope Show
Author: godg

This PDF 1.6 document has been generated by PScript5.dll Version 5.2.2 / Acrobat Distiller 10.1.3 (Windows), and has been sent on pdf-archive.com on 02/08/2012 at 17:12, from IP address 93.132.x.x. The current document download page has been viewed 1052 times.
File size: 133 KB (11 pages).
Privacy: public file




Download original PDF file









Document preview


The Dope Show – Marilyn Manson by ultimate-guitar.com & Andy Aledort
Moderate Rock Q=92(8=s8) - 4/4. Standard Tuning.
Intro 1: 4x. play w/ processing effects
e|-19~-------------|
B|-----------------|
G|-----------------|
D|-----0-----------|
A|-----0-----------|
E|-------12s10s12--|

Intro 2/Verse/Bridge: bass riff
e|-------|-------|-------------|
B|-------|-------|-------------|
G|-------|-------|-------------|
D|-------|-------|-------------|
A|-------|-------|---5-5-3-3-2~|
E|-0-0-0-|-0-3-0-|-0-----------|

Intro 2: use wah & heavy flanging

Verse 1: synth w/ pitch shifting effects over Intro 2/Verse bass riff
e|----|---|-----|---|-----|---|-------|---| The drugs they say, Make us feel so hollow
B|----|---|-----|---|-10\-|---|----8\-|---| We love in vain, Narcissistic and so shallow
G|-9\-|---|-12\-|---|--7\-|---|-9\----|---| The cops and queers, To swim you have to swallow
D|----|---|-----|---|-----|---|-------|---| Hate today, No love for tomorrow.
A|----|---|-----|---|-----|---|-------|---| We're all stars now in the Dope Show.
E|----|---|-----|---|-----|---|-------|-0-| We're all stars now in the Dope Show.
Chorus: E5 x799xx, D5 x577xx, C5 x355xx, G5 355xxx or x101212xx, B5 x244xx
e|----------------------------|
E5
G5
D5
C5 B5
B|----------------------------|
There's lots of pretty, pretty ones, Who want to get you high
G|-9- --12- --7- --5- --4-|
E5
G5
D5
D|-9-x7--12-x8--7-x8--5-x8--4-| 2x But all the pretty, pretty ones, Will leave you low
C5
B5
A|-7- --10- --5- --3- --2-|
E|----------------------------|
And blow your mind.
Coda: synth
e|-----------12/14-|-------14-12-|-----------12/14-|-------14-12-|
B|---12-10---------|-10-12-------|---12-10---------|-10-12-------|
G|-9-------9-------|-------------|-9-------9-------|-------------|
D|-----------------|-------------|-----------------|-------------|
A|-----------------|-------------|-----------------|-------------|
E|-----------------|-------------|-----------------|-------------|
We're all stars now
in the Dope Show.
We're all stars now
in the Dope Show.
Bridge B: play at 4th repeat of A
Bridge A: G5 355xxx
e|-----------------|---------------------|
|-------------|-------------|
B|-----------------|---------------------|
|-------------|-------------|
G|-----------------|---------------------|
|-9- --7- --|-5- --------|
D|-2---2---0-2---2-|-(2)---2---0-2-----2-| x4 |-9-x4--7-x4--|-5-x4--5- --|
A|-----------------|---------------------|
|-7- --5- --|-3- --5-x4--|
E|---0---0-----0---|-----0---0-----3b4---|
|-------------|-------3- --|
They love you when you're all on the covers, when you're not then they love another.
E5
D5
C5 G5
They love you when you're all on the covers, when you're not then they love another.
Verse 2: synth w/ pitch shifting effects
e|----|-----------|----|----|---|
B|----|-10b11-10\-|----|-8\-|---| The drugs they say, Are made in California
G|-9\-|-----------|-9\-|----|---| We love your face, We'd really like to sell you
D|----|-----------|----|----|---| The cops and queers, Make good-looking models
A|----|-----------|----|----|---| I hate today, Who will I wake up with tomorrow?
E|----|-----------|----|----|-0-|
Chorus. Coda without lyrics. Bridge.

Chorus 3: play over Chorus chord progression on 2nd guitar
E5
G5
D5
C5

D5

C5

Outro: play over Coda and Intro 2/Verse bass riff
(Coda)

Who'll all blow your mind

We're all stars now in the Dope show.

We're all stars now in the Dope show.

B5

B5

E5

G5

The Dope Show – Marilyn Manson (strumming version) by ultimate-guitar.com
Intro: Bass Riff
e|-------|-------|--------------|
B|-------|-------|--------------|
G|-------|-------|--------------|
D|-------|-------|------------2-|
A|-------|-2-----|---5-5-3-3~-2-|
E|-0-0-0-|-0-3-0-|-0------------|

Verse: final B may be changed to a C
e|-0-0-0-|-0-3-0-|-2--2-2--0-0-2-|
B|-0-0-0-|-0-0-0-|-3--3-3--1-1-4-|
G|-0-0-0-|-0-0-0-|-2--2-2--0-0-4-|
D|-2-2-2-|-2-0-2-|-0--0-0--2-2-4-|
A|-2-2-2-|-2-2-2-|---------3-3-2-|
E|-0-0-0-|-0-3-0-|---------------|

Verse 1: Em 022000, D xx0232 or x57775, C x32010 or x35553, B x24442
Em
G Em
D
C
(B)
The drugs they say, Make us feel so hollow
We love in vain,
Narcissistic and so shallow
The cops and queers, To swim you have to swallow
Hate today,
No love for tomorrow
Pre-Chorus: use intro riff (repeat)
Em
D
C (B)
We're all stars now in the dope show
Chorus: E5 022xxx, G5 355xxx, D5 x577xx, C5 x355xx, B5 x244xx
E5
G5
D5
C5 B5
There's lots of pretty, pretty ones, Who want to get you high
E5
G5
D5
C5
B5
But all the pretty,
pretty ones, Will leave you low And blow your mind
Coda: played as harmonics on guitar
e|---7-5---12/-|-5-7-14-12-|---7-5---12/-|-12---------|
B|-5-----5-----|-----------|-5-----5-----|----12-10-8-|
G|-------------|-----------|-------------|------------|
D|-------------|-----------|-------------|------------|
A|-------------|-5-5-3-3-2-|-------------|-5-5—-3-3-2-|
E|-0-0-0-0-3-0-|-----------|-0-0-0-0-3-0-|------------|
Pre-Chorus (repeat)
Bridge: A5 577xxx
E5
G5
They love you when you're
E5
G5
When you're not then they
E5
G5
They love you when you're
E5
D5
When you're not then they
Verse 2:
Em
The drugs they say,
We love your face,
The cops and queers,
I hate today,
Chorus
Solo: Em D C B
Bridge
Coda
Pre-Chorus (repeat)

A5
D5
on all the covers
A5
D5
love another
A5
D5
on all the covers
C5
G5
love another

D
C
(B)
Are made in California
We'd really like to sell you
Make good-looking models
Who will I wake up with tomorrow?

THE DOPE SHOW As recorded by Marilyn Manson
(From the 1998 Album MECHANICAL ANIMALS)
E5 x799xx, D5 x577xx, C5 x355xx, G5 355xxx, Em 0xx0xx, C x3xxx, D xx0xxx,
B x2xxxx, B5 x244xx, E5 02xxx, G5 355xxx, A5 x02xxx, D5 xx02xx
Gtr
Gtr
Gtr
Gtr

I (E A D G B E) - 'Rythm One'
II (E A D G B E) - 'Rythm Two'
III (E A D G B E) - 'Lead'
IV (E A D G B E) - 'Synth'

Intro
Moderate Rock Q=92(8=s8) 4/4
Gtr I
~~
~~
E E E E H
E E E E H
|-------------19----------|-------------19-----------||
|-------------------------|--------------------------||
|-------------------------|--------------------------||
|--0----------------------|--0-----------------------||
|--0----------------------|--0-----------------------||
|----12s10s12-------------|----12s10s12--------------||
|
| Gtr II
| ~~
~~
| H
E E E E
H
E E E E
|-19----------------------|-19-----------------------||
|-------------------------|--------------------------||
|-------------------------|--------------------------||
|--------------0----------|--------------0-----------||
|--------------0----------|--------------0-----------||
|----------------12s10s12-|----------------12s10s12--||
(Em)
Gtr III

(D)

(C)

(B)

~~~~
|--3---|
Q E
+S S E E a
+E +E
E
+E a
+E +E +E
+Q +E
E
|-----------------------------------|--------------------------------------------|
|-----------------------------------|--------------------------------------------|
|-----------------------------------|--------------------------------------------|
|-7h=9b10==(9)r9-7h9-9pb10==(9)r(9)-|-7b9==(7)-7pb9==(7)r(7)-(7)b9==(7)-(7)r7b9==|
|-----------------------------------|--------------------------------------------|
|-----------------------------------|--------------------------------------------|
(Em)

(D)
(C)
(B)
|---3---|
|3-|
+Q
+E
E
+E +E
E +E E
a
+E +E +E Q a
+E +E
Q
|---------------------------------|----------------------------------------||
|---------------------------------|----------------------------------------||
|---------------------------------|----------------------------------------||
|-(7)--(7)r-7b9==(7)-(7)r-9-(9)-7S|=9b10==(9)r(9)-(9)-7s9b10==(9)r(9)S[8]--||
|---------------------------------|----------------------------------------||
|---------------------------------|----------------------------------------||
Verse

(D(C)
(B)
Gtr IV
Gtrs I, II
~~
~~~
~~~
~~~~~~
PM
W
W
W
W
W
W
Q H.
Wx4
H
Q E E
|------|---|-------|---|-------|---|--------|------|-------------||
|------|---|-------|---|-10\---|---|----8\--|------|-------------||
|-9\---|---|-12\---|---|--7\---|---|-9\-----|------|-------------||
|------|---|-------|---|-------|---|--------|------|-------------||
|------|---|-------|---|-------|---|--------|------|-------------||
|------|---|-------|---|-------|---|--------|------|-----------0-||

Pre-Chorus
Gtrs I, II
$
E5
G5
E E E E E E E E
E E E E E E Q
|------------------|------------------------|
|------------------|------------------------|
|-9-9-9-9-9-9-9-12-|-12-12-12-12-12-12-12\--|
|-9-9-9-9-9-9-9-12-|-12-12-12-12-12-12-12\--|
|-7-7-7-7-7-7-7-10-|-10-10-10-10-10-10-10\--|
|------------------|------------------------|
D5
C5
B5
E E E E E E E E
E E E E E E E E
|-----------------|-----------------|
|-----------------|-----------------|
|-7-7-7-7-7-7-7-5-|-5-5-5-5-5-5-5-4-|
|-7-7-7-7-7-7-7-5-|-5-5-5-5-5-5-5-4-|
|-5-5-5-5-5-5-5-3-|-3-3-3-3-3-3-3-2-|
|-----------------|-----------------|
E5
G5
E E E E E E E E
E E E E E E Q
|-------------------|------------------------|
|-------------------|------------------------|
|-/9-9-9-9-9-9-9-12-|-12-12-12-12-12-12-12\--|
|-/9-9-9-9-9-9-9-12-|-12-12-12-12-12-12-12\--|
|-/7-7-7-7-7-7-7-10-|-10-10-10-10-10-10-10\--|
|-------------------|------------------------|
D5
C5
B5
E E E E E E E E
E E E E E E E E
|-----------------|-----------------||
|-----------------|-----------------||
|-7-7-7-7-7-7-7-5-|-5-5-5-5-5-5-5-4-||
|-7-7-7-7-7-7-7-5-|-5-5-5-5-5-5-5-4-||
|-5-5-5-5-5-5-5-3-|-3-3-3-3-3-3-3-2-||
|-----------------|-----------------||
Chorus
Gtr IV
(Em)
(D)(C)
(B)(Em)
~~~~~~~~~~~~~~~~~~~~~~~~~~~~~~~~~~~~~~~~~~
E E E E +E
Q
e
Q E e E E Q
|---------------12--14-|------------14-12--|
|---12-10--------------|------10-12--------|
|-9-------9-(9)--------|-------------------|
|----------------------|-------------------|
|----------------------|-------------------|
|----------------------|-------------------|
(D)(C)
(B)
~~~~~~~~~~~~~~~~~~~~~~~~~~~~~~~~~~~~~~~~~
E E E E +E
Q
E
Q E E E E Q
|---------------12--14-|------14-12--------||
|---12-10--------------|------------12-10--||
|-9-------9-(9)--------|-------------------||
|----------------------|-------------------||
|----------------------|-------------------||
|----------------------|-------------------||
Bridge
Gtr IV
(E5)
(G5)
(A5)
(D5)
Q
Q
Q
Q
Q
Q
Q
Q
|
|
|
|
o
o
o
o
Gtr III
E E E E E E E E
+E E E E E E E
E 3x
||------------------|------------------------||
||o-----------------|-----------------------o||
||------------------|------------------------||
||--2---2---0-2---2-|-(2)---2---0-2-------2--||
||o-----------------|-----------------------o||
||----0---0-----0---|-----0---0-----3b3.5----||

To Coda
E5
D5
C5
G5
Gtrs I, II
Q
Q
Q
Q
Q
Q
Q
Q
|
|
|
|
|
|
|
|
/
/
/
/
/
/
/
/
Gtr III
E E E E E E E E
+E E E E E E E
E
|-----------------|------------------------||
|-----------------|------------------------||
|-----------------|------------------------||
|-2---2---0-2---2-|-(2)---2---0-2-------2--||
|-----------------|------------------------||
|---0---0-----0---|-----0---0-----3b3.5----||
2nd Verse
D.S. al Coda
(D(C)
(B)
Gtr IV
Gtrs I, II
~~
~~~~~
~~
~~
PM
W
W
E
+Q. H
W
W
W
W
H
Q E E
|------|---|---------------|---|------|---|------|-------------||
|------|---|-10b11-(10)\---|---|------|---|-8\---|-------------||
|-9\---|---|---------------|---|-9\---|---|------|-------------||
|------|---|---------------|---|------|---|------|-------------||
|------|---|---------------|---|------|---|------|-------------||
|------|---|---------------|---|------|---|------|-----------0-||

2nd Pre-Chorus
&
E5
G5
Gtrs I, II
E
E E E E E E E
E
E
E
E E E Q
|----------------------|-----------------------------------|
|----------------------|-----------------------------------|
|-9----9--9-9-9-9-9-12-|--------12--12--12--12-12-12-12\---|
|-9----9--9-9-9-9-9-12-|--------12--12--12--12-12-12-12\---|
|-7----7--7-7-7-7-7-10-|--------10--10--10--10-10-10-10\---|
|----------------------|-----------------------------------|
|
| Gtr III
| E
+E E E E E E E
a
+E +E
E
Q
E E E
|----------------------|-----------------------------------|
|----------------------|-----------------------------------|
|-------------7-9-9----|---------------------7-----9--9--7-|
|-7b9-(7)-5-7--------0-|-[7]b9==(7)r(7)-[5]----------------|
|----------------------|-----------------------------------|
|----------------------|-----------------------------------|

G5

D5

C5

B5

E5

E E E E E E E E
E
E E E E E E E
E
E E E E E E E
|-------------------------|--------------------------|---------------------------|
|-------------------------|--------------------------|---------------------------|
|------7--7--7--7-7-7-7-5-|-------5---5--5-5-5-5-54-|----------------------------|
|------7--7--7--7-7-7-7-5-|-------5---5--5-5-5-5-5-4-|-------2---2--2-2-2-2-25---|
|------5--5--5--5-5-5-5-3-|-------3---3--3-3-3-3-3-2-|-------2---2--2-2-2-2-25---|
|-------------------------|--------------------------|-------0---0--0-0-0-0-03---|
|
|
|
~~~~
~~~~

| a
+E E E E E E E E
a
+E +E E E E E E E
a
+E +E E E E E E E
|-------------------------|--------------------------|---------------------------|
|-------------------------|--------------------------|---------------------------|
|-----------------7-9-9-7-|------------------7-9-9-7-|------------------7-9-97---|
|-7b8-(7)-7-[5]-x---------|-7b8==(7)r(7)-5-7---------|-7b8==(7)r(7)-57-----------|
|-------------------------|--------------------------|---------------------------|
|-------------------------|--------------------------|---------------------------|
(E)
D5
C5
Gtrs I, II
E
E E E E E E E
E
E E E E E E E
|--------------------------|--------------------------|
|--------------------------|--------------------------|
|--------------------------|-------7---7--7-7-7-7-7-5-|
|-------5---5--5-5-5-5-5---|-------7---7--7-7-7-7-7-5-|
|-------5---5--5-5-5-5-5---|-------5---5--5-5-5-5-5-3-|
|-------3---3--3-3-3-3-3-0-|--------------------------|
|
| Gtr III
| a
+E +E E E E E E E
a
+E +E E E E E E E
|--------------------------|--------------------------|
|--------------------------|--------------------------|
|------------------7-9-9p7-|------------------7-9-9p7-|
|-7b8==(7)r(7)-5-0---------|-7b8==(7)r(7)-5-0---------|
|--------------------------|--------------------------|
|--------------------------|--------------------------|

B5
~~

Out-Chorus
(Em)
Gtr IV
~~~~~~~~~~~~~~~~~~~~~~~~~~~~~~~~~~~~~~~~~~

E
E E E E E E E
E
E
E
E
+E
Q
e
|--------------------------||---------------------------------------12------14--|
|--------------------------||----------------12-----10--------------------------|
|-------5---5--5-5-5-5-5-4-||--------9---------------------9--(9)---------------|
|-------5---5--5-5-5-5-54-||----------------------------------------------------|
|-------3---3--3-3-3-3-32-||----------------------------------------------------|
|--------------------------||---------------------------------------------------|
|
|
Gtr III
|
\4.5
\3.5
\
2___/1________\2___/1___________
|
~~~~~
| a
+E +E E E E E E E
a
E a
E a
E
E
+E
E
E
E
|--------------------------||---------------------------------------------------|
|--------------------------||---------------------------------------------------|
|------------------7-99S7-||----------------------------------------------------|
|-7b8==(7)r(7)-5-x---------||-------------------<5>--<5>--<5>-(<5>)-<5>--<5>--|
|--------------------------||---------------------------------------------------|
|--------------------------||-<7>---<7>-0----0----------------------------------|

Gtr IV

(D)

(C)

(B)

(Em)

~~~~~~~~~~~~~~~~~~~~~~~~~~~~~~~~~~~~~~~~~~~~~~~~~~~~~~~~~~~~~~~~~~~~~~~
~~~~~~~~~~~~~~~~~~~~~~~~~~~~~~~~~~~~~~~~~~~~~~~~~~~~~~~~~~
Q
E
e
E
E Q
E
E
E
E
+E
Q
E
|------------------------------------1412--------|------------------------------------------------------12---------------14-----------|
|----------------------10-------12----------------|---------12-10----------------------------------------------------------------------|
|-------------------------------------------------|-9-------------------------9--------(9)---------------------------------------------|
|-------------------------------------------------|------------------------------------------------------------------------------------|
|-------------------------------------------------|------------------------------------------------------------------------------------|
|-------------------------------------------------|------------------------------------------------------------------------------------|
|
| Gtr III
| \2
\0.5
\1.5___/1______\1.5
\1.5___/
\
1___________\1.5
|
\0.5____________/
\1
|
|------3--------|
|---------3----------|
|-------3--------|
| a
+Q
a
E
E a
+Q
+E
+E
E a
+E +E
a
+E
E
+E
a
+E
E
+E
E
a
+E
|-------------------------------------------------|------------------------------------------------------------------------------------|
|----------------------0-------------------------|------------------------------------------------------------------------------------|
|-------------------------0-----(0)-----(0)---(0)-|---0-----(0)-(0)-<4>-(<4>)---<4>---(<4>)----------------------------------<4>-(<4>)-|
|-<5>-(<5>)--<4>--<4>----------------------------|-----------------------------------------<4>----(<4>)----<4>-(<4>)-<4>--------------|
|-------------------------------------------------|------------------------------------------------------------------------------------|
|-------------------------------------------------|------------------------------------------------------------------------------------|
(D)
(C)
(B)
~~~~~~~~~~~~~~~~~~~~~~~~~~~~~~~~~~~~~~~~~~~~~~~~~~~~~~~~~~~~~~~~~~~~~~~~~~~~~~
Q
E
E
E
E
Q
|-----------------------------------------------14----12--------------------------------------------------|
|--------------------------------------------------------------12-------------10--------------------------|
|---------------------------------------------------------------------------------------------------------|
|---------------------------------------------------------------------------------------------------------|
|---------------------------------------------------------------------------------------------------------|
|---------------------------------------------------------------------------------------------------------|
|
| \1
\2_________/
\1____________________|
\
0.5_________|
\1.5
\2
|
|---------3----------|
|--------3--------|
|--------3---------|
|---------3----------|
| a
+E
a
+E
a
+E
E
a
+E
E
E
E
a
+E
E
a
+E
a
+E
|---------------------------------------------------------------------------------------------------------|
|---------------------------------------------------------------------------------------------------------|
|-<4>(<4>)-----------------------------------------------------------------------------------------------|

|------------------------------------<4>--(<4>)----<4>-<4><4>---------------------------------------------|
|-----------<4>--(<4>)-<4>-(<4>)-<4>------------------------------<4>----(<4>)<4>-<4>---(<4>)-<4>-(<4>)---|
|---------------------------------------------------------------------------------------------------------|
(Em)
Gtrs I, II
q
q
E
E
E
E
|-----------------------------------------------------------------------------------------------------------------|
|-----------------------------------------------------------------------------------------------------------------|
|-----------------------------------------------------------------------------------------------------------------|
|-----------------------------------------------------------------------------------------------------------------|
|-----------------------------------------------------------------------------------------------------------------|
|--------0-------------------------0--------------------------------0------0-------------3b3.5-----0--------------|
|
| Gtr III
| \2_________/1___|
\2_________/
\1.5
\
2_________|
\1______________________\1.5/
|
|------3-------|
|----------3----------|
|------3--------|
|---------3----------|
| a
+E
E
a
+E
a
+E
a
+E
a
+E
a
+E
E
a
+E
E
E
a
+E
|-----------------------------------------------------------------------------------------------------------------|
|-----------------------------------------------------------------------------------------------------------------|
|-----------------------------------------------------------------------------------------------------------------|
|-----------------------------------------------------------------------------------------------------------------|
|-<4>--(<4>)-<4>--<4>-(<4>)-<4>--(<4>)-<4>-(<4>)-<4>---(<4>)-<4>--(<4>)-<4>--<4>--(<4>)-<4>----<4>---<4>----(<4>)-|
|-----------------------------------------------------------------------------------------------------------------|
(D)
(C)
(B)
E
E
E
E
E
E
E
E
|---------------------------------------------------------------------------|
|---------------------------------------------------------------------------|
|---------------------------------------------------------------------------|
|---------------------------------------------------------------------------|
|-----------------5-----------5-------------3----------5----5-------5---2---|
|---------------------------------------------------------------------------|
|
| \1_____________|
\1.5_________|
\2
\1_________\2 \1___/
|
|---3----|
|------3------|
|-3--|
| a
+E
E
E
a
+E
E
a
+E
a
+E
Q a
+E +E
|---------------------------------------------------------------------------|
|---------------------------------------------------------------------------|
|---------------------------------------------------------------------------|
|---------------------------------------------------------------------------|
|-<4>--(<4>)-<4>-<4>-<4>----(<4>)-<4>-<4>-(<4>)-<4>--(<4>)-<4>-0---(0)-(0)--|
|---------------------------------------------------------------------------|
(Em)
Gtrs I, II
q
q
E
E E
E
|-------------------------------------------|
|-------------------------------------------|
|-------------------------------------------|
|-------------------------------------------|
|-------------------------------------------|
|--------0--------0----------0---0--3b3.5-0-|

| Gtr III
| \0.5___\1___/
\0.5___\1 |
| a
+E
+E +Q
a
+E +Q
E
|-------------------------------------------|
|-------------------------------------------|
|-0-----(0)--(0)-(0)--0-----(0)-(0)---------|
|-----------------------------------------0-|
|-------------------------------------------|
|-------------------------------------------|
(D)

(C)

(B)

Gtr IV
~~~
E
E
E
E E E E
E
W
|----------------------------------------------||-10\--*|
|----------------------------------------------||------*|
|----------------------------------------------||------*|
|----------------------------------------------||------*|
|--------------5--------5----3--3-3-3-------2--||------*|
|----------------------------------------------||------*|
|
|
\1___\2____________\2.5 |
|
~~~
|
|---3----|
| a
+E +E
E a
+E
+E E E E a
+E
W
|----------------------------------------------||-10\--*|
|----------------------------------------------||------*|
|-2b3==(2)r(2)---2-----------------------------||------*|
|----------------------------------------------||------*|
|----------------------------------------------||------*|
|------------------0---(0)--(0)-0-0-0-0----(0)-||------*|
Duration Legend
--------------W - whole; H - half; Q - quarter; E - 8th; S - 16th; T - 32nd; X - 64th; a acciaccatura
+ - note tied to previous; . - note dotted; .. - note double dotted
Uncapitalized letters represent notes that are staccato (1/2 duration)
Irregular groupings are notated above the duration line
Duration letters will always appear directly above the note/fret number it
represents the duration for. Duration letters with no fret number below them
represent rests. Multi-bar rests are notated in the form Wxn, where n is the
number of bars to rest for. Low melody durations appear below the staff
Tablature Legend
---------------h
- hammer-on
p
- pull-off
b
- bend
pb - pre-bend
r
- bend release (if no number after the r, then release immediately)
/\ - slide into or out of (from/to "nowhere")
s
- legato slide
S
- shift slide
- natural harmonic
[n] - artificial harmonic
n(n) - tapped harmonic
~
- vibrato
tr - trill
T
- tap
TP - trem. picking
PM - palm muting
\n/ - tremolo bar dip; n = amount to dip
\n - tremolo bar down
n/ - tremolo bar up
/n\ - tremolo bar inverted dip
=
- hold bend; also acts as connecting device for hammers/pulls
<> - volume swell (louder/softer)
x
- on rhythm slash represents muted slash
o
- on rhythm slash represents single note slash

Misc Legend
----------| - bar
|| - double bar
||o - repeat start
o|| - repeat end
*| - double bar (ending)
: - bar (freetime)
$ - Segno
& - Coda
Tempo markers - = BPM(8/16=s8/s16), where s8 = swing 8ths, s16 = swing 16ths


Related documents


PDF Document marilyn manson ma02 the dope show
PDF Document marilyn manson ma14 coma white
PDF Document marilyn manson ma01 great big white world
PDF Document marilyn manson ma09 i don t like the drugs but the drugs like me
PDF Document marilyn manson ma07 posthuman
PDF Document marilyn manson ma08 i want to disappear


Related keywords