PDF Archive

Easily share your PDF documents with your contacts, on the Web and Social Networks.

Send a file File manager PDF Toolbox Search Help Contact



Marilyn Manson MA13 The Last Day On Earth .pdf


Original filename: Marilyn Manson - MA13 The Last Day On Earth.pdf
Title: Marilyn Manson - MA13 The Last Day On Earth
Author: godg

This PDF 1.5 document has been generated by PScript5.dll Version 5.2.2 / Acrobat Distiller 10.1.3 (Windows), and has been sent on pdf-archive.com on 06/08/2012 at 01:51, from IP address 77.2.x.x. The current document download page has been viewed 2541 times.
File size: 34 KB (1 page).
Privacy: public file




Download original PDF file









Document preview


The Last Day On Earth – Marilyn Manson by ultimate-guitar.com
This tab combines the album version & the live acoustic version on TLTOE.
Intro 1: 5x.
e|-------9-----9---|-------9-----9---|
B|---7-----7-----7-|---7-----7-------|
G|-9---------9-----|-9---------9-----|
D|-----9-----------|-----9-----------|
A|-----------------|-----------------|
E|-----------------|-----------------|

Alt. Intro 1: 1x. live TLTOE version
e|-0-----9-----9---0-----9-|
B|---7-----7-----7---7-----|
G|-----0-----0---------0---|
D|-------------------------|
A|-------------------------|
E|-------------------------|

Intro 2: start with 1st repeat of Intro 1. B5 x2440x or B x24432 or 799877,
G 320033 or 355433, Em 022000, Asus4 x00230, Cadd9 x30030 or C5 x355xx
e|-------3- --0- ---|
|-0- --0- ---------|
B|-0- --3- --0- ---|
|-3- --3- --0--|
G|-4- --0- --0- ---|
|-2-x6--0-x5--4-x10--|
D|-4-x6--0-x4--2-x10--| x3 |-0- --0- --4--|
A|-2- --2- --2- ---|
|-0- --3- --2--|
E|-------3- --0- ---|
|--------------------|
Verse 1: Am x02210, C x32010
Am
G
C
G
Am
G
Asus4
Am
Yesterday was a million years ago. In all my past lives I played an asshole.
G
C
G
Am
G
Asus4
Now I found you, it's almost too late.
And this earth seems obliviating
Am
G
C
G
Am
G
Asus4
We are trembling in our crutches. High and dead our skin is glass.
Am
G
C
G
Am
G
Asus4
I'm so empty here without you.
I crack my xerox hands
Chorus A:
B5 G
Em
I know it's the last day on
B5 G
Em
I know it's the last day on

B5
G
Em
earth. We'll be together while the planet dies
Asus4
Cadd9
B5
earth. We'll never say goodbye

Chorus B: synth. 2x. D xxx2310
e|-5-7-8-7-5--3-5-3-0-|-5-7-8-7-5-3--10--|
B|--------------------|--------------3---|
G|--------------------|--------------2---|
D|--------------------|------------------|
A|--------------------|------------------|
E|--------------------|------------------|
Post-Chorus A: synth
Am
G
C G
Am
G Asus4
e|---7----10-8-7-8-|---7---------|
B|-----8-----------|-----8--10---|
G|-9---------------|-9---------9-|
D|-----------------|-------------|
A|-----------------|-------------|
E|-----------------|-------------|

Post-Chorus B: verse chord progression
e|-0- --3- --0- --3- --0- --3- --0-|
B|-1- --3- --1- --3- --1- --3- --3-|
G|-2- --0- --0- --0- --2- --0- --2-|
D|-2-x6--0-x6--2-x4--0-x6--2-x6--0-x4--0-|
A|-0- --2- --3- --2- --0- --2- --0-|
E|-------3- --------3- --------3- ----|

Verse 2:
Am
G
C
G
Am
G
Asus4
Am
And the dogs slaughter each other softly.
Love burns it's casualties
G
C
G
Am
G
Asus4
Am
We are damaged provider modules.
Spill the seeds at our children's feet
G
C
G
Am
G
Asus4
And I'm so empty here without you.
I know they want me dead
Chorus. Then Post-Chorus x2 in live acoustic „The Last Tour On Earth“ version
or Post-Chorus x1, then Post-Chorus x2 with chorus lyrics on vocoder
Chorus x2
Outro:
Cadd9
B5 Asus4
Cadd9
B5 Asus4 C5 B5
We'll never say goodbye.
We'll never say goodbye


Document preview Marilyn Manson - MA13 The Last Day On Earth.pdf - page 1/1

Related documents


PDF Document marilyn manson ma13 the last day on earth
PDF Document juli wir beide
PDF Document marilyn manson ma05 disassociative
PDF Document don t you worry child
PDF Document marilyn manson ma07 posthuman
PDF Document marilyn manson long hard road out of hell


Related keywords