PDF Archive

Easily share your PDF documents with your contacts, on the Web and Social Networks.

Send a file File manager PDF Toolbox Search Help Contact



Marilyn Manson MA14 Coma White .pdf



Original filename: Marilyn Manson - MA14 Coma White.pdf
Title: Coma White – Marilyn Manson
Author: godg

This PDF 1.5 document has been generated by Acrobat PDFMaker 10.1 für Word / Acrobat Distiller 10.1.2 (Windows), and has been sent on pdf-archive.com on 09/08/2012 at 20:45, from IP address 95.115.x.x. The current document download page has been viewed 1410 times.
File size: 83 KB (11 pages).
Privacy: public file




Download original PDF file









Document preview


Coma White (acoustic) – Marilyn Manson by ultimate-guitar.com
Intro riff 1: x3
e-------------------------|
B---0---0---0---0---1---1-|
G-2---2---2---2—-(2)-(2)--|
D-------------------------|
A-------------------------|
E-----------------0-------|

Intro riff 2: quick alt. picking
------------------|
-/3-3-3-3-1-1-0-0-|
play intro 3x then
------------------|
start 1st verse
------------------|
------------------|
--0---------------|

Verse 1: play intro riffs 5x over lyrics
There's something cold and blank. Behind her smile
She's standing on an overpass. In a miracle mile
Cause you were from a perfect world
A world that threw me away today, today, today. To run away
Chorus: x2. A5 577xxx, C5 81010xxx, G5 355xxx, F5 133xxx
e-------------------------------------------------------------------------|
B-------------------------------------------------------------------------|
G-------------------------------------------------------------------------|
D-7-7-7-7-7-7-7-7-10-10-10-10-10-10-10-10-5-5-5-5-5-5-5-5-5\3-3-3-3-3-3-3-|
A-7-7-7-7-7-7-7-7-10-10-10-10-10-10-10-10-5-5-5-5-5-5-5-5-5\3-3-3-3-3-3-3-|
E-5-5-5-5-5-5-5-5--8--8--8--8--8--8--8--8-3-3-3-3-3-3-3-3-3\1-1-1-1-1-1-1-|
A pill to make you numb. A pill to make you dumb.
A pill to make you
But all the drugs in
this world.
won't save her from her-

anybody else
self

Bridge: D5 101212xxx, G#5 466xxx
e--------------------------------------------------------------|
B--------------------------------------------------------------|
G--------------------------------------------------------------|
D-7-7-7-7-10-12\6--6-6-6-10-12-7-7-7-7-12-10--3--3-3-3-3-3-3-3-|
A-7-7-7-7-10-12\6--6-6-6-10-12-7-7-7-7-12-10--3--3-3-3-3-3-3-3-|
E-5-5-5-5--8-10\4--4-4-4--8-10-5-5-5-5-10--8--1--1-1-1-1-1-1-1-|
Solo: keyboard arranged for guitar.
e-5-5-5-5-3-5-3-2-2-5-2-3-1-5-------5-5-----5---3-5-3-2-2-5-2-1-3---------|
B-----------------------------1s3s1-----5-5---5-------------------1s3-1s3-|
G-------------------------------------------------------------------------|
D-------------------------------------------------------------------------|
A-------------------------------------------------------------------------|
E-------------------------------------------------------------------------|
Verse 2: play intro 5x
Her mouth was an empty cut. She was waiting to fall
Just bleeding like a polaroid. That lost all her dolls
Cause you were from a perfect world.
A world that threw me away today, today, today. To run away
Chorus
Bridge
Solo, then repeat Solo with following vocal:
Cause you were from a perfect world, a world that threw me away – today.
Outro:
e-----12--10--12--|
B-12--------------|
G------9---7---9--| x3
D--9--------------| then play chorus. then play this 4x
A-----------------|
E-----------------|

e-------------|
B-------------|
G-4b5-4-2-0h2-|
D-------------|
A-------------|
E-------------|

COMA WHITE - Marilyn Manson From the 1998 Album MECHANICAL ANIMALS
Gtr I (E A D G B E) Gtr II (E A D G B E) Gtr III (E A D G B E)
Intro Q=85 4/4
Gtr I
S S S S S S S S S S S S S S S S
S S S S S S S S S S S S S S S S
|---------------------------------|----------------------------------|
|-----0-----0-----0-----0---0---0-|-----0-----0-----0-----0---0---0--|
|---4-----4-----4-----4---5---5---|---4-----4-----4-----4---5---5----|
|-7-----7-----7-----7-------------|-7-----7-----7-----7--------------|
|---------------------------------|----------------------------------|
|---------------------------------|----------------------------------|
S S S S S S S S S S S S S S S S
S S S S S S S S S S S S S S S S
|---------------------------------|----------------------------------|
|-----0-----0-----0-----0---0---0-|----0---0---0---0---0---0---0---0-|
|---4-----4-----4-----4---5---5---|-/7---7---7---7---5---5---4---4---|
|-7-----7-----7-----7-------------|----------------------------------|
|---------------------------------|----------------------------------|
|---------------------------------|----------------------------------|
S S S S S S S S S S S S S S S S
S S S S S S S S S S S S S S S S
|---------------------------------|---------------------------------|
|-----0-----0-----0-----0---0---0-|-----0-----0-----0-----0---0---0-|
|---4-----4-----4-----4---5---5---|---4-----4-----4-----4---5---5---|
|-7-----7-----7-----7-------------|-7-----7-----7-----7-------------|
|---------------------------------|---------------------------------|
|---------------------------------|---------------------------------|
S S S S S S S S S S S S S S S S
S S S S S S S S S S S S S S S S
|---------------------------------|----------------------------------|
|-----0-----0-----0-----0---0---0-|----0---0---0---0---0---0---0---0-|
|---4-----4-----4-----4---5---5---|-/7---7---7---7---5---5---4---4---|
|-7-----7-----7-----7-------------|----------------------------------|
|---------------------------------|----------------------------------|
|---------------------------------|----------------------------------|
Verse
S S S S S S S S S S S S S S S S
S S S S S S S S S S S S S S S S
||----------------------------------|---------------------------------|
||o-----0-----0-----0-----0---0---0-|-----0-----0-----0-----0---0---0-|
||----4-----4-----4-----4---5---5---|---4-----4-----4-----4---5---5---|
||--7-----7-----7-----7-------------|-7-----7-----7-----7-------------|
||o---------------------------------|---------------------------------|
||----------------------------------|---------------------------------|
S S S S S S S S S S S S S S S S
S S S S S S S S S S S S S S S S
3x
|---------------------------------|--------------------------------------||
|-----0-----0-----0-----0---0---0-|----0---0---0---0---0---0---0---0----o||
|---4-----4-----4-----4---5---5---|-/7---7---7---7---5---5---4---4-------||
|-7-----7-----7-----7-------------|--------------------------------------||
|---------------------------------|-------------------------------------o||
|---------------------------------|--------------------------------------||

Pre-Chorus
S S S S S S S S S S S S S S S S
S S S S S S S S S S S S S S S S
|---------------------------------|---------------------------------|
|-----0-----0-----0-----0---0---0-|-----0-----0-----0-----0---0---0-|
|---4-----4-----4-----4---5---5---|---4-----4-----4-----4---5---5---|
|-7-----7-----7-----7-------------|-7-----7-----7-----7-------------|
|---------------------------------|---------------------------------|
|---------------------------------|---------------------------------|
|

| Gtr II
| W
W
|-8-------------------------------|-7-------------------------------|
|---------------------------------|---------------------------------|
|---------------------------------|---------------------------------|
|---------------------------------|---------------------------------|
|---------------------------------|---------------------------------|
|---------------------------------|---------------------------------|
S S S S S S S S S S S S S S S S
S S S S S S S S S S S S S S S S
|------------------------------------|------------------------------------|
|-------0-----0-----0-----0----0---0-|----0---0---0---0----0---0---0---0--|
|-----4-----4-----4-----4----5---5---|-/7---7---7---7----5---5---4---4----|
|--7------7-----7-----7--------------|------------------------------------|
|------------------------------------|------------------------------------|
|------------------------------------|------------------------------------|
|
| H.
Q
H
H
|-17------------------------19-------|-20---------------22----------------|
|------------------------------------|------------------------------------|
|------------------------------------|------------------------------------|
|------------------------------------|------------------------------------|
|------------------------------------|------------------------------------|
|------------------------------------|------------------------------------|

Chorus
Gtrs II, III
E E E E E E E E
E E E E E E
E E
|---------------------|--------------------------|
|---------------------|--------------------------|
|---------------------|--------------------------|
|-7-7--7--7-7--7--7-7-|-10-10-10-10-10-10--10-10-|
|-7-7--7--7-7--7--7-7-|-10-10-10-10-10-10--10-10-|
|-5-5--5--5-5--5--5-5-|--8--8--8--8--8--8---8--8-|
E E E E E E E E
E E E E E E E E
|----------------------|----------------------|
|----------------------|----------------------|
|----------------------|----------------------|
|--5-5--5--5-5--5--5-5-|--5S3--3--3-3--3--3-3-|
|--5-5--5--5-5--5--5-5-|--5S3--3--3-3--3--3-3-|
|--3-3--3--3-3--3--3-3-|--3S1--1--1-1--1--1-1-|
E E E E E E E E
E E E E E E
E E
|----------------------|--------------------------|
|----------------------|--------------------------|
|----------------------|--------------------------|
|--7-7--7--7-7--7--7-7-|-10-10-10-10-10-10--10-10-|
|--7-7--7--7-7--7--7-7-|-10-10-10-10-10-10--10-10-|
|--5-5--5--5-5--5--5-5-|--8--8--8--8--8--8---8--8-|
E E E E E E E E
E E E E H
|----------------------|--------------------|
|----------------------|--------------------|
|----------------------|--------------------|
|--5-5--5--5-5--5--5-5-|--5S3--3--3-3-------|
|--5-5--5--5-5--5--5-5-|--5S3--3--3-3-------|
|--3-3--3--3-3--3--3-3-|--3S1--1--1-1-------|

Bridge
Gtr III
E E E E E E E E
+E E E E E E E
E
|-------------------|-------------------------|
|-------------------|-------------------------|
|-------------------|-------------------------|
|-7-7-7-7-10-12---6-|-(6)-6-6-6-10-12-----7---|
|-7-7-7-7-10-12---6-|-(6)-6-6-6-10-12-----7---|
|-5-5-5-5--8-10-0-4-|-(4)-4-4-4--8-10-0---5---|
|
| Gtr II
| E E E E E E E E
+E E E E E E S S S S
|-5---5----3--5-3-2-|-(2)-2-5-2--1--3---------|
|---5---5-----------|-----------------1s3-1s3-|
|-------------------|-------------------------|
|-------------------|-------------------------|
|-------------------|-------------------------|
|-------------------|-------------------------|
E E
E E E E E E
+E E E E E E E
E
|---------------------|------------------------|
|---------------------|------------------------|
|---------------------|------------------------|
|-7-7---7-7-12-10---5-|-(5)-5-5-5-5-5-5---5----|
|-7-7---7-7-12-10---3-|-(3)-3-3-3-3-3-3---3----|
|-5-5---5-5-10--8-0-1-|-(1)-1-1-1-1-1-1---1----|
|
| E S S E E E E E E
+E E E E E E S S S S
|-5-----5----3--5-3-2-|-(2)-2-5-2-1-3----------|
|---5-5---5-----------|---------------1s3-1s3--|
|---------------------|------------------------|
|---------------------|------------------------|
|---------------------|------------------------|
|---------------------|------------------------|
Verse
Gtr I
S S S S S S S S S S S S S S S S
S S S S S S S S S S S S S S S S
|-----------------------------------|-----------------------------------|
|-------0-----0-----0-----0---0---0-|-------0-----0-----0-----0---0---0-|
|-----4-----4-----4-----4---5---5---|-----4-----4-----4-----4---5---5---|
|---7-----7-----7-----7-------------|--7------7-----7-----7-------------|
|-----------------------------------|-----------------------------------|
|-----------------------------------|-----------------------------------|
|
| Gtr II
| a W
+W
|-----------------------------------|-----------------------------------|
|-3s5-------------------------------|-(5)-------------------------------|
|-----------------------------------|-----------------------------------|
|-----------------------------------|-----------------------------------|
|-----------------------------------|-----------------------------------|
|-----------------------------------|-----------------------------------|
S S S S S S S S S S S S S S S S
S
S S S S S S S S S S S S S S S
|-----------------------------------|-------------------------------------|
|-------0-----0-----0-----0---0---0-|-------0---0---0---0---0---0---0---0-|
|-----4-----4-----4-----4---5---5---|--/7-----7---7---7---5---5---4---4---|
|--7------7-----7-----7-------------|-------------------------------------|
|-----------------------------------|-------------------------------------|
|-----------------------------------|-------------------------------------|
|
| W
+W
|-----------------------------------|-------------------------------------|
|-[5]-------------------------------|-([5])-------------------------------|
|-----------------------------------|-------------------------------------|
|-----------------------------------|-------------------------------------|
|-----------------------------------|-------------------------------------|
|-----------------------------------|-------------------------------------|

S S S S S S S S S S S S S S S S
S S S S S S S S S S S S S S S S
||------------------------------------|-----------------------------------|
||o-------0-----0-----0-----0---0---0-|-------0-----0-----0-----0---0---0-|
||------4-----4-----4-----4---5---5---|-----4-----4-----4-----4---5---5---|
||---7------7-----7-----7-------------|--7------7-----7-----7-------------|
||o-----------------------------------|-----------------------------------|
||------------------------------------|-----------------------------------|
|
|
+W
+W
||------------------------------------|-----------------------------------|
||o-(5)-------------------------------|-(5)-------------------------------|
||------------------------------------|-----------------------------------|
||------------------------------------|-----------------------------------|
||o-----------------------------------|-----------------------------------|
||------------------------------------|-----------------------------------|
S S S S S S S S S S S S S S S S
S S S S S S S S S S S S S S S S
|-----------------------------------|------------------------------------||
|-------0-----0-----0-----0---0---0-|-----0---0---0---0---0---0---0---0--||
|-----4-----4-----4-----4---5---5---|-/7----7---7---7---5---5---4---4----||
|--7------7-----7-----7-------------|------------------------------------||
|-----------------------------------|------------------------------------||
|-----------------------------------|------------------------------------||
|
| +W
+W
|-----------------------------------|------------------------------------||
|-(5)-------------------------------|-(5)-------------------------------o||
|-----------------------------------|------------------------------------||
|-----------------------------------|------------------------------------||
|-----------------------------------|-----------------------------------o||
|-----------------------------------|------------------------------------||
Pre-Chorus
S S S S S S S S S S S S S S S S
S S S S S S S S S S S S S S S S
|---------------------------------|---------------------------------|
|-----0-----0-----0-----0---0---0-|-----0-----0-----0-----0---0---0-|
|---4-----4-----4-----4---5---5---|---4-----4-----4-----4---5---5---|
|-7-----7-----7-----7-------------|-7-----7-----7-----7-------------|
|---------------------------------|---------------------------------|
|---------------------------------|---------------------------------|
|
| W
W
|-8-------------------------------|-7-------------------------------|
|---------------------------------|---------------------------------|
|---------------------------------|---------------------------------|
|---------------------------------|---------------------------------|
|---------------------------------|---------------------------------|
|---------------------------------|---------------------------------|
S S S S S S S S S S S S S S S S
S S S S S S S S S S S S S S S S
|------------------------------------|------------------------------------|
|-------0-----0-----0-----0----0---0-|----0---0---0---0----0---0---0---0--|
|-----4-----4-----4-----4----5---5---|-/7---7---7---7----5---5---4---4----|
|--7------7-----7-----7--------------|------------------------------------|
|------------------------------------|------------------------------------|
|------------------------------------|------------------------------------|
|
| H.
Q
H
H
|-17------------------------19-------|-20---------------22----------------|
|------------------------------------|------------------------------------|
|------------------------------------|------------------------------------|
|------------------------------------|------------------------------------|
|------------------------------------|------------------------------------|
|------------------------------------|------------------------------------|

Chorus
Gtrs II, III
E E E E E E E E
E E E E E E
E E
|---------------------|--------------------------|
|---------------------|--------------------------|
|---------------------|--------------------------|
|-7-7--7--7-7--7--7-7-|-10-10-10-10-10-10--10-10-|
|-7-7--7--7-7--7--7-7-|-10-10-10-10-10-10--10-10-|
|-5-5--5--5-5--5--5-5-|--8--8--8--8--8--8---8--8-|
E E E E E E E E
E E E E E E E E
|----------------------|----------------------|
|----------------------|----------------------|
|----------------------|----------------------|
|--5-5--5--5-5--5--5-5-|--5S3--3--3-3--3--3-3-|
|--5-5--5--5-5--5--5-5-|--5S3--3--3-3--3--3-3-|
|--3-3--3--3-3--3--3-3-|--3S1--1--1-1--1--1-1-|
E E E E E E E E
E E E E E E
E E
|----------------------|--------------------------|
|----------------------|--------------------------|
|----------------------|--------------------------|
|--7-7--7--7-7--7--7-7-|-10-10-10-10-10-10--10-10-|
|--7-7--7--7-7--7--7-7-|-10-10-10-10-10-10--10-10-|
|--5-5--5--5-5--5--5-5-|--8--8--8--8--8--8---8--8-|
E E E E E E E E
E E E E E E E E
|----------------------|----------------------|
|----------------------|----------------------|
|----------------------|----------------------|
|--5-5--5--5-5--5--5-5-|--5S3--3--3-3--3--3-3-|
|--5-5--5--5-5--5--5-5-|--5S3--3--3-3--3--3-3-|
|--3-3--3--3-3--3--3-3-|--3S1--1--1-1--1--1-1-|
E E E E E E E E
E E E E E E
E E
|----------------------|--------------------------|
|----------------------|--------------------------|
|----------------------|--------------------------|
|--7-7--7--7-7--7--7-7-|-10-10-10-10-10-10--10-10-|
|--7-7--7--7-7--7--7-7-|-10-10-10-10-10-10--10-10-|
|--5-5--5--5-5--5--5-5-|--8--8--8--8--8--8---8--8-|
E E E E E E E E
E E E E E E E E
|----------------------|----------------------|
|----------------------|----------------------|
|----------------------|----------------------|
|--5-5--5--5-5--5--5-5-|--5S3--3--3-3--3--3-3-|
|--5-5--5--5-5--5--5-5-|--5S3--3--3-3--3--3-3-|
|--3-3--3--3-3--3--3-3-|--3S1--1--1-1--1--1-1-|
E E E E E E E E
E E E E E E
E E
|----------------------|--------------------------|
|----------------------|--------------------------|
|----------------------|--------------------------|
|--7-7--7--7-7--7--7-7-|-10-10-10-10-10-10--10-10-|
|--7-7--7--7-7--7--7-7-|-10-10-10-10-10-10--10-10-|
|--5-5--5--5-5--5--5-5-|--8--8--8--8--8--8---8--8-|
E E E E E E E E
E E E E E E E E
|----------------------|----------------------|
|----------------------|----------------------|
|----------------------|----------------------|
|--5-5--5--5-5--5--5-5-|--5S3--3--3-3--3--3-3-|
|--5-5--5--5-5--5--5-5-|--5S3--3--3-3--3--3-3-|
|--3-3--3--3-3--3--3-3-|--3S1--1--1-1--1--1-1-|

Interlude
Gtr III
E E E E E E E E
+E E E E E E E E
|-------------------|---------------------|
|-------------------|---------------------|
|-------------------|---------------------|
|-7-7-7-7-10-12---6-|-(6)-6-6-6-10-12---7-|
|-7-7-7-7-10-12---6-|-(6)-6-6-6-10-12---7-|
|-5-5-5-5--8-10-0-4-|-(4)-4-4-4--8-10-0-5-|
|
| Gtr II
| W
W
|-------------------|---------------------|
|-------------------|---------------------|
|-------------------|---------------------|
|-------------------|---------------------|
|-------------------|---------------------|
|-------------------|---------------------|
E E E E E E E E
+E E E E E E E E
|-------------------|-------------------|
|-------------------|-------------------|
|-------------------|-------------------|
|-7-7-7-7-12-10---5-|-(5)-5-5-5-5-5-5-5-|
|-7-7-7-7-12-10---3-|-(3)-3-3-3-3-3-3-3-|
|-5-5-5-5-10--8-0-1-|-(1)-1-1-1-1-1-1-1-|
|
| W
W
|-------------------|-------------------|
|-------------------|-------------------|
|-------------------|-------------------|
|-------------------|-------------------|
|-------------------|-------------------|
|-------------------|-------------------|
E E E E E E E E
+E E E E E E E
E
|-------------------|-------------------------|
|-------------------|-------------------------|
|-------------------|-------------------------|
|-7-7-7-7-10-12---6-|-(6)-6-6-6-10-12-----7---|
|-7-7-7-7-10-12---6-|-(6)-6-6-6-10-12-----7---|
|-5-5-5-5--8-10-0-4-|-(4)-4-4-4--8-10-0---5---|
|
| E E E E E E E E
+E E E E E E S S S S
|-5---5----3--5-3-2-|-(2)-2-5-2--1--3---------|
|---5---5-----------|-----------------1s3-1s3-|
|-------------------|-------------------------|
|-------------------|-------------------------|
|-------------------|-------------------------|
|-------------------|-------------------------|
E E
E E E E E E
+E E E E E E E
E
|---------------------|------------------------|
|---------------------|------------------------|
|---------------------|------------------------|
|-7-7---7-7-12-10---5-|-(5)-5-5-5-5-5-5---5----|
|-7-7---7-7-12-10---3-|-(3)-3-3-3-3-3-3---3----|
|-5-5---5-5-10--8-0-1-|-(1)-1-1-1-1-1-1---1----|
|
| E S S E E E E E E
+E E E E E E S S S S
|-5-----5----3--5-3-2-|-(2)-2-5-2-1-3----------|
|---5-5---5-----------|---------------1s3-1s3--|
|---------------------|------------------------|
|---------------------|------------------------|
|---------------------|------------------------|
|---------------------|------------------------|

E E E E E E E E
+E E E E E E E
E
|-------------------|-------------------------|
|-------------------|-------------------------|
|-------------------|-------------------------|
|-7-7-7-7-10-12---6-|-(6)-6-6-6-10-12-----7---|
|-7-7-7-7-10-12---6-|-(6)-6-6-6-10-12-----7---|
|-5-5-5-5--8-10-0-4-|-(4)-4-4-4--8-10-0---5---|
|
| E E E E E E E E
+E E E E E E S S S S
|-5---5----3--5-3-2-|-(2)-2-5-2--1--3---------|
|---5---5-----------|-----------------1s3-1s3-|
|-------------------|-------------------------|
|-------------------|-------------------------|
|-------------------|-------------------------|
|-------------------|-------------------------|
E E
E E E E E E
+E E E E E E E
E
|---------------------|------------------------|
|---------------------|------------------------|
|---------------------|------------------------|
|-7-7---7-7-12-10---5-|-(5)-5-5-5-5-5-5---5----|
|-7-7---7-7-12-10---3-|-(3)-3-3-3-3-3-3---3----|
|-5-5---5-5-10--8-0-1-|-(1)-1-1-1-1-1-1---1----|
|
| E S S E E E E E E
+E E E E E E S S S S
|-5-----5----3--5-3-2-|-(2)-2-5-2-1-3----------|
|---5-5---5-----------|---------------1s3-1s3--|
|---------------------|------------------------|
|---------------------|------------------------|
|---------------------|------------------------|
|---------------------|------------------------|
Guitar Break
| Gtr II
| S S +Q.
+H
+W
|-------------------------|-------------------|
|-1s5-(5)-------(5)-------|-(5)---------------|
|-------------------------|-------------------|
|-------------------------|-------------------|
|-------------------------|-------------------|
|-------------------------|-------------------|
| +W
+W
|-------------------|--------------------|
|-(5)---------------|-(5)----------------|
|-------------------|--------------------|
|-------------------|--------------------|
|-------------------|--------------------|
|-------------------|--------------------|
Gtrs II, III
E E E E E E E E
E E E E E E
E E
|----------------------|--------------------------|
|----------------------|--------------------------|
|----------------------|--------------------------|
|--7-7--7--7-7--7--7-7-|-10-10-10-10-10-10--10-10-|
|--7-7--7--7-7--7--7-7-|-10-10-10-10-10-10--10-10-|
|--5-5--5--5-5--5--5-5-|--8--8--8--8--8--8---8--8-|
E E E E E E
E E
E E E E E E E E
|--------------------------|----------------------|
|--------------------------|----------------------|
|--------------------------|----------------------|
|--------------------------|--3-3--3--3-3--3--3-3-|
|--9--9--9--9--9--9---9--9-|--3-3--3--3-3--3--3-3-|
|-10-10-10-10-10-10--10-10-|--1-1--1--1-1--1--1-1-|

Out-Chorus
Gtr III
E E E E E E
E E
E E E E E E
E E
||--------------------------|----------------------------|
||o-------------------------|----------------------------|
||--------------------------|----------------------------|
||---7-7--7--7-7--7---7--7--|-10-10-10-10-10-10---10-10--|
||o--7-7--7--7-7--7---7--7--|-10-10-10-10-10-10---10-10--|
||---5-5--5--5-5--5---5--5--|--8--8--8--8--8--8----8--8--|
|
|
Gtr II
|
Q
E Q
Q
+E
Q
E Q
Q
+E
||--------------------------|----------------------------|
||o-------------------------|----------------------------|
||---2----0--2----4b5r==(4)-|--2-----0--2-----4b5r===(4)-|
||--------------------------|----------------------------|
||o-------------------------|----------------------------|
||--------------------------|----------------------------|
E E E E E E
E E
E E E E E E
E E
|-------------------------|-------------------------||
|-------------------------|------------------------o||
|-------------------------|-------------------------||
|--5-5--5--5-5--5---5--5--|--5S3--3--3-3--3---3-3---||
|--5-5--5--5-5--5---5--5--|--5S3--3--3-3--3---3-3--o||
|--3-3--3--3-3--3---3--3--|--3S1--1--1-1--1---1-1---||
|
| Q
E Q
Q
+E
Q
E Q
Q.
|-------------------------|-------------------------||
|-------------------------|------------------------o||
|--2----0--2----4b5r==(4)-|--2----0--2----7b9-------||
|-------------------------|-------------------------||
|-------------------------|------------------------o||
|-------------------------|-------------------------||
E
E E E E E E E
E
E E E E E
E E
|------------------------|----------------------------|
|------------------------|----------------------------|
|------------------------|----------------------------|
|--7---7--7--7-7--7--7-7-|-10---10-10-10-10-10--10-10-|
|--7---7--7--7-7--7--7-7-|-10---10-10-10-10-10--10-10-|
|--5---5--5--5-5--5--5-5-|--8----8--8--8--8--8---8--8-|
|
| Q
E Q
Q.
Q
E Q
Q.
|------------------------|----------------------------|
|------------------------|----------------------------|
|--4b5r===4--2----0------|--4b5r====4--2-----0--------|
|------------------------|----------------------------|
|------------------------|----------------------------|
|------------------------|----------------------------|
E
E E E E E E E
E
E E E E E E E
|------------------------|------------------------|
|------------------------|------------------------|
|------------------------|------------------------|
|--5---5--5--5-5--5--5-5-|--5S==3--3--3-3--3--3-3-|
|--5---5--5--5-5--5--5-5-|--5S==3--3--3-3--3--3-3-|
|--3---3--3--3-3--3--3-3-|--3S==1--1--1-1--1--1-1-|
|
| Q
E Q
Q.
Q
E Q
Q.
|------------------------|------------------------|
|------------------------|------------------------|
|--4b5r===4--2----0------|--4b5r===4--2----0------|
|------------------------|------------------------|
|------------------------|------------------------|
|------------------------|------------------------|

E
E E E E E E E
E
E E E E E
E E
|------------------------|----------------------------|
|------------------------|----------------------------|
|------------------------|----------------------------|
|--7---7--7--7-7--7--7-7-|-10---10-10-10-10-10--10-10-|
|--7---7--7--7-7--7--7-7-|-10---10-10-10-10-10--10-10-|
|--5---5--5--5-5--5--5-5-|--8----8--8--8--8--8---8--8-|
|
| Q
E Q
Q.
Q
E Q
Q.
|------------------------|----------------------------|
|------------------------|----------------------------|
|--4b5r===4--2----0------|--4b5r====4--2-----0--------|
|------------------------|----------------------------|
|------------------------|----------------------------|
|------------------------|----------------------------|
E
E E E E E E E
E
E E E E E E E
|------------------------|------------------------|
|------------------------|------------------------|
|------------------------|------------------------|
|--5---5--5--5-5--5--5-5-|--5S==3--3--3-3--3--3-3-|
|--5---5--5--5-5--5--5-5-|--5S==3--3--3-3--3--3-3-|
|--3---3--3--3-3--3--3-3-|--3S==1--1--1-1--1--1-1-|
|
| Q
E Q
Q.
Q
E Q
Q.
|------------------------|------------------------|
|------------------------|------------------------|
|--4b5r===4--2----0------|--4b5r===4--2----0------|
|------------------------|------------------------|
|------------------------|------------------------|
|------------------------|------------------------|
W
+W
+W
+W
|-----------------|------------------|------------------|-----------------|-----------------|------------------|------------------|-----------------|-----------------|------------------|------------------|-----------------|--7--------------|--(7)-------------|--(7)-------------|--(7)------------|--7--------------|--(7)-------------|--(7)-------------|--(7)------------|--5--------------|--(5)-------------|--(5)-------------|--(5)------------|
| Q
E Q Q.
Q
E Q Q.
Q
E Q Q.
Q
E Q Q.
|-----------------|------------------|------------------|-----------------|-----------------|------------------|------------------|-----------------|--4b5r=4-2--0----|---4b5r=4-2--0----|---4b5r=4-2--0----|---4b5r=4-2--0---|-----------------|------------------|------------------|-----------------|-----------------|------------------|------------------|-----------------|-----------------|------------------|------------------|-----------------+W
+W
+W
+W
|------------------|------------------|------------------|---------*|
|------------------|------------------|------------------|---------*|
|------------------|------------------|------------------|---------*|
|--(7)-------------|--(7)-------------|--(7)-------------|--(7)----*|
|--(7)-------------|--(7)-------------|--(7)-------------|--(7)----*|
|--(5)-------------|--(5)-------------|--(5)-------------|--(5)----*|
|
|
Q
E Q Q.
Q
E Q Q.
Q
E Q Q.
+W
|------------------|------------------|------------------|---------*|
|------------------|------------------|------------------|---------*|
|---4b5r=4-2--0----|---4b5r=4-2--0----|---4b5r=4-2--0----|--(0)----*|
|------------------|------------------|------------------|---------*|
|------------------|------------------|------------------|---------*|
|------------------|------------------|------------------|---------*|

Duration Legend
--------------W - whole; H - half; Q - quarter; E - 8th; S - 16th; T - 32nd; X - 64th; a
- acciaccatura
+ - note tied to previous; . - note dotted; .. - note double dotted
Uncapitalized letters represent notes that are staccato (1/2 duration)
Irregular groupings are notated above the duration line
Duration letters will always appear directly above the note/fret number it
represents the
duration for. Duration letters with no fret number below them represent
rests. Multibar rests are notated in the form Wxn, where n is the number of bars to
rest for. Low
melody durations appear below the staff
Tablature Legend
---------------h
- hammer-on
p
- pull-off
b
- bend
pb - pre-bend
r
- bend release (if no number after the r, then release immediately)
/\ - slide into or out of (from/to "nowhere")
s
- legato slide
S
- shift slide
- natural harmonic
[n] - artificial harmonic
n(n) - tapped harmonic
~
- vibrato
tr - trill
T
- tap
TP - trem. picking
PM - palm muting
\n/ - tremolo bar dip; n = amount to dip
\n - tremolo bar down
n/ - tremolo bar up
/n\ - tremolo bar inverted dip
=
- hold bend; also acts as connecting device for hammers/pulls
<> - volume swell (louder/softer)
x
- on rhythm slash represents muted slash
o
- on rhythm slash represents single note slash
Misc Legend
----------| - bar
|| - double bar
||o - repeat start
o|| - repeat end
*| - double bar (ending)
: - bar (freetime)
$ - Segno
& - Coda
Tempo markers - = BPM(8/16=s8/s16), where s8 = swing 8ths, s16 = swing
16ths


Related documents


PDF Document marilyn manson ma14 coma white
PDF Document marilyn manson ma04 rock is dead
PDF Document marilyn manson ma07 posthuman
PDF Document marilyn manson ma02 the dope show
PDF Document marilyn manson ma01 great big white world
PDF Document white stripes seven nation army


Related keywords