PDF Archive

Easily share your PDF documents with your contacts, on the Web and Social Networks.

Share a file Manage my documents Convert Recover PDF Search Help Contact



Marilyn Manson MA08 I Want To Disappear .pdf


Original filename: Marilyn Manson - MA08 I Want To Disappear.pdf
Title: _Marilyn Manson - MA08 I Want To Disappear
Author: godg

This PDF 1.5 document has been generated by PScript5.dll Version 5.2.2 / Acrobat Distiller 10.1.3 (Windows), and has been sent on pdf-archive.com on 28/08/2012 at 22:39, from IP address 95.115.x.x. The current document download page has been viewed 776 times.
File size: 14 KB (1 page).
Privacy: public file




Download original PDF file









Document preview


I Want To Disappear – Marilyn Manson by ultimate-guitar.com & WorMM
Drop D tuning. Tempo: 145
Intro: 2x
e|----------------|------------|
B|----------------|------------|
G|----------------|------------|
D|----------------|-6-6-6-6-6b-|
A|-0--0-0-3-0-3-2-|------------|
D|-0--0-0-3-0-3-2-|------------|

Verse: synth. Start with „I was a virgin..“
e|-16-16-16-16-16b--|
B|-16-16-16-16-16b--|
G|------------------|
D|------------------|
A|------------------|
D|------------------|

Verse 1: play Intro 6x. don't play 6th repeat of 2nd bar of Intro
Look at me now I've got no religion. Look at me now. I'm so vacant. Look at me now. I was a virgin.
Look at me now grew up to be a whore. And I want it. I believe it.
Pre-chorus 1A: 1st guitar.
e|------------------|
B|-----10-----------|
G|---9------9-9---9-|
D|-7------7-----7---| x2
A|------------------|
D|------------------|
I'm a million different things.

|-----------------|
|-----7-----------|
|---6-----6-6---6-|
|-4-----4-----4---| x2
|-----------------|
|-----------------|
And not one you know.

Pre-Chorus 1B: 2nd guitar.
e|---------------|
B|---------------|
G|---------------|
D|---------------|
A|---------------|
D|-7-x12--4-x12--|
[---Palm mute--]

Chorus: D#5 x688xx, C#5 x466xx, F#5 x91111xx, B5 x244xx, A5 x022xx, E5 x799xx
e|--------------------------|
|-------------------|---------------------|
B|--------------------------|
|-------------------|---------------------|
G|-8-8-8-6-8-8--11-11-8-6-6-|
|-9- --6- --8- --|-4- --6- --2- --8-|
D|-8-8-8-6-8-8--11-11-8-6-6-| x3 |-9-x8--6-x8--8-x8--|-4-x8--6-x8--2-x5--8-|
A|-6-6-6-4-6-6--9--9--6-4-4-|
|-7- --4- --6- --|-2- --4- --0- --6-|
D|--------------------------|
|-------------------|---------------------|
D#5 C#5 D#5
F#5
D#5 C#5 D#5 C#5 D#5 F#5 D#5 C#5
D#5 C#5 D#5
F#5
Hey,
and our mommies are lost now. Hey,
daddy's someone
else.
Hey,
yeah we love
D#5 C#5
E5
C#5
D#5 B5
D#5
A5
D#5
the abuse. Because it makes us feel like we are needed, now. But I know. I wanna disappear.
Post-chorus:
e|-----------------|
B|-----9b----------|
G|--------8-6-8-8~-|
D|-----------------| x4
A|-----------------|
D|-0-0-------------|

Disappear. I wanna disappear. Disappear, baby.

Verse 2: play 7x Intro, don't play 7th repeat of 2nd bar of Intro
I wanna die young. And sell my soul. Use up all your drugs. And make me come. Yesterday man, I was a nihilist and
Now today I'm - just too fucking bored. And I want it. I believe it. And I want it.
Pre-chorus 2: play Pre-Chorus 1 with following lyrics
By the time I'm old enough. I won't know anything at all
Chorus
Post-chorus
Pre-Chorus 1 without lyrics
Solo/Break: 3x. Use wah
e|------| |---------------|
B|------| |-4-----2-4-4---|
G|------| |---2-4-------4-|
D|------| |---------------| x2
A|------| |---------------|
D|-7-x8-| |---------------|
[P.m.]
Chorus


Document preview Marilyn Manson - MA08 I Want To Disappear.pdf - page 1/1

Related documents


marilyn manson ma08 i want to disappear
marilyn manson long hard road out of hell
marilyn manson ma14 coma white
very special chords
marilyn manson ma09 i don t like the drugs but the drugs like me
marilyn manson ma06 the speed of pain


Related keywords