PDF Archive

Easily share your PDF documents with your contacts, on the Web and Social Networks.

Send a file File manager PDF Toolbox Search Help Contact



Marilyn Manson MA07 Posthuman .pdf


Original filename: Marilyn Manson - MA07 Posthuman.pdf
Title: _Marilyn Manson - MA07 Posthuman
Author: godg

This PDF 1.5 document has been generated by PScript5.dll Version 5.2.2 / Acrobat Distiller 10.1.3 (Windows), and has been sent on pdf-archive.com on 14/09/2012 at 15:44, from IP address 93.132.x.x. The current document download page has been viewed 841 times.
File size: 55 KB (1 page).
Privacy: public file




Download original PDF file









Document preview


Posthuman – Marilyn Manson by ultimate-guitar.com & Procopsora
Intro A: 4x. Synth
e|---------------------------------|
B|---------------------------------|
G|---------------------------------|
D|-------------------0-0-0---------|
A|-0-2-2-2-3-2-0-2-2-------2-0-2-0-|
E|---------------------------------|

Intro B: 2x. guitar
e|-----------7~-----|
B|------------------|
G|------------------|
D|-9b10r--7-----x-x-|
A|--------------x-x-|
E|--------------x-x-|

Alt. Intro B:
e|-----------|
B|--------13-|
G|-12b-10----|
D|-----------|
A|-----------|
E|-----------|

Verse 1: play Intro A (Bass, last four notes are all open A string not 2-0-2-0)
She's got eyes like Zapruder - And a mouth like heroin. She wants me to be - Perfect like Kennedy
Bridge 1: play Intro B x4
This isn't god, this isn't god. God is just a statistic, God is just a statistic.
Chorus: 2x. B5 x244xx
e|------------|----------|---------------|-------------|
B|------------|----------|---------------|-------------|
G|-----9b11r9-|-9b11r9---|-4-4-4-4-4-4-4-|-4-4-4-4-4-x-|
D|-0h2--------|--------9-|-4-4-3-3-3-3-4-|-4-3-3-3-3-x-|
A|------------|----------|-2-2---------2-|-2---------x-|
E|------------|----------|---------------|-------------|
Say, Show me the dead stars, All of them sing. (Hey hey hey) This is a riot. Religious and clean. (Hey hey hey.)
Post-Chorus 1: 6x. synth
e|-14---------------------|
B|-----14--14-15-14-15-14-|
G|------------------------|
D|------------------------|
A|------------------------|
E|------------------------|

God is a number you cannot count to. You are posthuman and hard-wired.

Intro A 2x. (Then play Intro A bass only.)
Verse 2: play Intro B x4
She's pilgrim and pagan. Softworn and so-cial. In all of her dreams. She's a saint like Jackie-O.
Bridge 2: play Intro B x4
This isn't god, this isn't god. This isn't god, this isn't god. God is just a statistic, God is just a statistic. Say,
Chorus 2x
Post-Chorus 2:
God is a number you cannot count to (x3). You are posthuman and hard-wired.
Solo: synth

Interlude/Break: palm mute Intro A
All that Glitters is cold. (x3)
Chorus 2x.
Intro A 2x


Document preview Marilyn Manson - MA07 Posthuman.pdf - page 1/1

Related documents


PDF Document marilyn manson ma07 posthuman
PDF Document marilyn manson ma08 i want to disappear
PDF Document marilyn manson ma02 the dope show
PDF Document marilyn manson ma11 user friendly
PDF Document marilyn manson long hard road out of hell
PDF Document marilyn manson ma06 the speed of pain


Related keywords