PDF Archive

Easily share your PDF documents with your contacts, on the Web and Social Networks.

Share a file Manage my documents Convert Recover PDF Search Help Contact



Marilyn Manson MA11 User Friendly .pdf


Original filename: Marilyn Manson - MA11 User Friendly.pdf
Title: _Marilyn Manson - MA11 User Friendly
Author: godg

This PDF 1.5 document has been generated by PScript5.dll Version 5.2.2 / Acrobat Distiller 10.1.3 (Windows), and has been sent on pdf-archive.com on 23/09/2012 at 20:10, from IP address 77.2.x.x. The current document download page has been viewed 1140 times.
File size: 73 KB (1 page).
Privacy: public file




Download original PDF file









Document preview


User Friendly – Marilyn Manson by ultimate-guitar.com
Intro: pick scrapes on A string. Sing „Doh doh doh“ acc. to verse vocal melody.
Verse 1: bass. 2x
G|---------------------------------|----------------------------------|
D|-----2-2-0-0-----4-4-4-4-0-0-2-2-|-----2-2-0-0----------------------|
A|-------------2-2-----------------|-------------1-1-0-0-0-0----------|
E|-0-0-----------------------------|-0-0---------------------3-3-0-0--|
Use me when you want to come. I've bled just to have your touch. When I'm in you I want to die.
Pre-chorus 2:
Pre-chorus 1: 2x. Synth on guitar
e|-12----------12-----|-12----------12----15-----|
B|-----|
B|----12-15-12----12~-|----12-15-12----12----12~-|
G|-----|
G|--------------------|--------------------------|
D|-x-x-|
D|--------------------|--------------------------|
A|-x-x-|
A|--------------------|--------------------------|
E|-x-x-|
E|--------------------|--------------------------|
She says
User friendly fucking dopestar obscene. Will you die when you're high. You'd never die just for me.
Chorus A: 2x. B5 x244xx, C#5 x466xx, D5 x577xx, E5 x799xx
e|-----------------------------------|
B|-----------------------------------|
B5
C#5
D5
E5
G|-4-4-4-4-4-4-4-4--6-6-6-6-7-7-9-9--|
"I'm not in love, but I'm gonna fuck you
D|-4-4-4-4-4-4-4-4--6-6-6-6-7-7-9-9--| x2
B5
C#5 D5 E5
A|-2-2-2-2-2-2-2-2--4-4-4-4-5-5-7-7--|
'til somebody better comes along."
E|-----------------------------------|
Chorus B: 2x. synth on 2nd Guitar
e|----------12-14----------12-10-|
B|-12-11-10-------12-11-10-------|
G|-------------------------------|
D|-------------------------------|
A|-------------------------------|
E|-------------------------------|
Post-chorus A: F#5 x91111xx
e|-----------------------------|
B|-----------------------------|
G|-9-9-9--7--11-11-11-11\7--9^-|
D|-9-9-9--7--11-11-11-11\7-----|
A|-7-7-7--5---9--9--9--9\5-----|
E|-----------------------------|

Post-Chorus B: synth on 2nd guitar
e|------------|
B|-12---------|
G|-----10^\9--|
D|------------|
A|------------|
E|------------|

Intro
Verse 2: 2x
Use me like I was a whore. Relationships are such a bore. Delete the ones that you've fucked
Pre-chorus 1. Pre-chorus 2. Then Chorus x2. Then Post-chorus
Bridge: 2x. Lyrics spoken through vocoder.
e|-7-----10-|-7-----7------|
"I'm not in love, but I'm gonna fuck you
B|---7-10---|---7-10-------|
'til somebody better - comes along."
G|----------|---------9--7-|
D|----------|--------------| x2
A|----------|--------------|
E|----------|--------------|
Chorus x2
Outro A: let ring
e|----|
B|----|
G|-4--|
D|-4--|
A|-2--|
E|----|

Outro B: synth
e|-----|
B|-12~-|
G|-----|
D|-----|
A|-----|
E|-----|


Document preview Marilyn Manson - MA11 User Friendly.pdf - page 1/1

Related documents


marilyn manson ma11 user friendly
marilyn manson ma07 posthuman
marilyn manson long hard road out of hell
marilyn manson ma08 i want to disappear
marilyn manson ma02 the dope show
marilyn manson ma06 the speed of pain


Related keywords