PDF Archive

Easily share your PDF documents with your contacts, on the Web and Social Networks.

Share a file Manage my documents Convert Recover PDF Search Help Contact



Brushy One String Chicken in the corn .pdf


Original filename: Brushy One String - Chicken in the corn.pdf
Author: Ati

This PDF 1.4 document has been generated by Microsoft® Word 2010, and has been sent on pdf-archive.com on 24/07/2014 at 18:05, from IP address 84.236.x.x. The current document download page has been viewed 2400 times.
File size: 92 KB (9 pages).
Privacy: public file




Download original PDF file









Document preview


TAB by http://www.guitartabmaker.com/
Watch a video how to play this song
http://www.guitartabmaker.com/2014/07/brushy-one-string-chicken-in-corntab.html

Brushy One String - Chicken in the corn

Intro

x

x x

x

x

x

x

x

x

E-0---5---------------------------0---3---------------------------------

x

x x

x

x

x

x

x

x

E-0---5---------------------------0---3---------------------------------

x

x

x

x

x

x

x

x

E-0---5---------------------------0---3---------------------------------

x

x

x

x

x

x

x

x

E-0---5---------------------------0---3---------------------------------

x

x

x

x

x

x

x

x

E-0---5---------------------------0---3---------------------------------

x

x

x

x

x

x x

x x

x

x

x

E-0---5---------------------------0---3---------------------------------

Chorus

x

x

x

x

E-5---5-------0---3---3-------0---5---5-------0---3---3-------0---------

x

x

x

x

E-5---5-------0---3---3-------0---5---5-------0---3---3-------0---------

x

x

x

x

E-5---5-------0---3---3-------0---5---5-------0---3---3-------0---------

x

x

x

x

E-5---5-------0---3---3-------0---5---5-------0---3---3-------0---------

Verse

x

x

x

x

E-5---5-------0---3---3-------0---5---5-------0---3---3-------0---------

x

x

x

x

E-5---5-------0---3---3-------0---5---5-------0---3---3-------0---------

x

x

x

x

E-5---5-------0---3---3-------0---5---5-------0---3---3-------0---------

x

x

x

x

x

x

x

E-5.--------------3.--------------5.------------------------------------

Chorus

x

x

x

x

E-5---5-------0---3---3-------0---5---5-------0---3---3-------0---------

x

x

x

x

E-5---5-------0---3---3-------0---5---5-------0---3---3-------0---------

x

x

x

x

E-5---5-------0---3---3-------0---5---5-------0---3---3-------0---------

x

x

x

x

E-5---5-------0---3---3-------0---5---5-------0---3---3-------0---------

Verse 2

x

x

x

x

E-5.--5-------0---3---3-------0---5---5-------0---3---3-------0---------

x

x

x

x

E-5---5-------0---3---3-------0---5---5-------0---3---3-------0---------

x

x

x

x

E-5---5-------0---3---3-------0---5---5-------0---3---3-------0---------

x

x

x

x

E-5---5-------0---3---3-------0---5---5-------0---3---3-------0---------

Bridge

E-5-------5-----5-----5---5---5---3-------3-----3-----3---3---3---------

x

x x

x x

x

x

x

E-5-------5-----5-----5---5---5---3-------------------------------------

Chorus

x

x

x

x

E-5.--5-------0---3.--3-------0---5.--5-------0---3.--3-------0---------

x

x

x

x

E-5---5-------0---3---3-------0---5---5-------0---3---3-------0---------

x

x

x

x

E-5---5-------0---3---3-------0---5---5-------0---3---3-------0---------

x

x

x

x

E-5---5-------0---3---3-------0---5---5-------0---3---3-------0---------

Verse 3

x

x

x

x

E-5---5-------0---3---3-------0---5---5-------0---3---3-------0---------

x

x

x

x

E-5---5-------0---3---3-------0---5---5-------0---3---3-------0---------

x

x

x

x

E-5---5-------0---3---3-------0---5---5-------0---3---3-------0---------

x

x

x

x x

x

x

x

E-5---5-------0---3---3-------0---5.------------------------------------

Chorus

x

x

x

x

E-5---5-------0---3---3-------0---5---5-------0---3---3-------0---------

x

x

x

x

E-5---5-------0---3---3-------0---5---5-------0---3---3-------0---------

x

x

x

x

E-5---5-------0---3---3-------0---5---5-------0---3---3-------0---------

x

x

x

x

E-5---5-------0---3---3-------0---5---5-------0---3---3-------0---------

Verse 4

x

x

x

x

E-5.--5-------0---3.--3-------0---5.--5-------0---3.--3-------0---------

x

x

x

x

E-5---5-------0---3---3-------0---5---5-------0---3---3-------0---------

x

x

x

x

E-5---5-------0---3---3-------0---5---5-------0---3---3-------0---------

x

x

x

x

E-5---5-------0---3---3-------0---5---5-------0---3---3-------0---------

Bridge 2

E-5.------5.----5.----5.--5---5---3-------3-----3.----3---3---3---------

x

x x

x x

x

x

x

E-5.------5.----5.----5.--5---5---3-------------------------------------

Chorus

x

x

x

x

E-5.--5-------0---3.--3-------0---5.--5-------0---3.--3-------0---------

x

x

x

x

E-5---5-------0---3---3-------0---5---5-------0---3---3-------0---------

x

x

x

x

E-5.--5-------0---3.--3-------0---5.--5-------0---3.--3-------0---------

x

x

E-5.--5-------0---3.--3-------0---5-------------------------------------

THE END

:D


Related documents


brushy one string chicken in the corn
bama breeze
james blunt you are beautiful
james blunt you are beautiful
black label society queen of sorrow
summer paradise


Related keywords