PDF Archive

Easily share your PDF documents with your contacts, on the Web and Social Networks.

Send a file File manager PDF Toolbox Search Help Contact



White Stripes Seven Nation Army .pdf


Original filename: White Stripes - Seven Nation Army.pdf
Title: White Stripes - Seven Nation Army
Author: godg

This PDF 1.5 document has been generated by PScript5.dll Version 5.2.2 / Acrobat Distiller 10.1.13 (Windows), and has been sent on pdf-archive.com on 06/04/2015 at 17:55, from IP address 149.172.x.x. The current document download page has been viewed 826 times.
File size: 14 KB (2 pages).
Privacy: public file




Download original PDF file









Document preview


Seven Nation Army – White Stripes
Tempo: 124 bpm, Takt: 4/4. Tuning: Standard.
Intro: Hauptriff 4x = 8 Takte. Auf Bass oder palm-muted Gtr mit DT Whammy.
e|---------------------|
B|---------------------|
alternat. Intro: Variante des Hauptriffs
G|---------------------|
G|----------------------|
D|---------------------|
D|--------5-------------|
A|-7---7-10-7--5-3---2-|
A|-7---7-----7--5--3--2-|
E|---------------------|
E|----------------------|
Verse 1: Hauptriff 8x = 16 Takte. Setzt in kursiven Silben ein.
I'm gonna fight 'em all. A seven nation army couldn't hold me back.
They're gonna rip it off. Taking their time right behind my back.
And I'm talking to myself at night, Because I can't forget.
Back and forth through my mind. Behind a cigarette.
Bridge: G5 & A5 je 8x = 2 Takte hin zum Refrain, setzt mir „-lone“ ein. Overdr!
e|-------------------|
B|-------------------|
G|-------------------|
G5
A5
D|-5----7--| And a message coming from my eyes, says leave it a-lone.
A|-5- x8 ----7- x8 --|
E|-3----5--|
Chorus: Hauptriff und verlängerter Riff 2x = 8 Takte. Viel Overdrive.
e|-------------------|----------------------|
B|°------------------|---------------------°|
G|--9--9-12-9-7-5--4-|-9--9-12-9-7-5-7-5-4--|
D|--9--9-12-9-7-5--4-|-9--9-12-9-7-5-7-5-4--|
A|°-7--7-10-7-5-3--2-|-7--7-10-7-5-3-5-3-2-°|
E|-------------------|----------------------|
Bridge 2 ohne Vocals. Intro.
Verse 2:
Don't wanna hear about it. Every single one's got a story to tell.
Everyone knows about it. From the Queen of England to the hounds of Hell.
And if I catch you coming back my way. I'm gonna sell it to you.
And that ain't what you want to hear. But that's what I'll do.
Bridge 3:

G5
A5
And a feeling coming from my bones says find a home

Chorus 2/Solo: Haupt- & verlängerter Riff 8x = 32 Takte. Mit Slide ab 5. Takt
e|-----------|----------------------||---------------------|----------------|..
B|-----8~-7~-|------8-----8-10-8-7~-||---------------------|----------------|..
G|-9~--------|-9--9---9-7-----------||-9--9-12-9-7-12~-11~-|-9--9-12-9-7-12-|..
D|-----------|----------------------||---------------------|----------------|..
A|-----------|----------------------||---------------------|----------------|..
E|-----------|----------------------||---------------------|----------------|..
e|-------------|-/12~-12-15-12p10-15~-14~-|-12--12-15-12p10-15-17-15-14~-|
B|-------------|--------------------------|------------------------------|
G|..-14-12-11~-|--------------------------|------------------------------|
D|-------------|--------------------------|------------------------------|
A|-------------|--------------------------|------------------------------|
E|-------------|--------------------------|------------------------------|
e|-12—12-15-12-10-15/17-14~-|-12--12-14-12-12-14-12--------|
B|--------------------------|-----------------------13-12~-|
G|--------------------------|------------------------------|
D|--------------------------|------------------------------|
A|--------------------------|------------------------------|
Bridge 2.

End on e|------------|
B|------------|
G|-9--(9)-----|
D|-9--(9)--6\-|
A|-7--(7)--7\-|
E|---------7\-|

(eigentlich geht der Song nach Bridge 4 hier weiter, aber wir machen schluß)
Verse 3:
I'm going to Wichita. Far from this opera forevermore
I'm gonna work the straw. Make the sweat drip out of every pore.
And I'm bleeding and I'm bleeding and I'm bleeding right before the Lord.
All the words are gonna bleed from me. And I will think no more.
G5
A5
Bridge 5: And the stains coming from my blood tell me go back home
Chorus 3
End on
e|--------|
B|--------|
G|-9------|
D|-9---6\-|
A|-7---7\-|
E|-----7\-|


White Stripes - Seven Nation Army.pdf - page 1/2
White Stripes - Seven Nation Army.pdf - page 2/2

Related documents


PDF Document white stripes seven nation army
PDF Document wir sind helden aurelie
PDF Document david bowie heroes
PDF Document juli wir beide
PDF Document wir sind helden nur ein wort
PDF Document marilyn manson ma11 user friendly


Related keywords