PDF Archive

Easily share your PDF documents with your contacts, on the Web and Social Networks.

Send a file File manager PDF Toolbox Search Help Contact



For Whom The Bell Tolls (INC) .pdf


Original filename: For Whom The Bell Tolls (INC).pdf
Title: _g licks
Author: maus

This PDF 1.6 document has been generated by PScript5.dll Version 5.2.2 / Acrobat Distiller 10.1.7 (Windows), and has been sent on pdf-archive.com on 11/05/2015 at 12:57, from IP address 193.197.x.x. The current document download page has been viewed 746 times.
File size: 63 KB (1 page).
Privacy: public file




Download original PDF file









Document preview


For Whom The Bell Tolls – Metallica
Intro 1A: 12x.
e|-------------|
B|-------------|
G|-------------|
D|-4-4--4-4--2-|
A|-4-4--4-4--2-|
E|-2-2--2-2--0-|
In. 1C:
e|-----|
B|-----|
G|-----|
D|-4-4-|
A|-4-4-|
E|-2-2-|

Intro 1B: bass. 8x. tr = trilling.
G|-19-18-17-16~-19p16-------19---------|
D|--------------------17-16------------|
A|-----------------------------17-16tr-|
E|-------------------------------------|

Intro 2: palm-mute. 2x.
|---------|
|---------|
|---------|
|---------|
|---------|
|-------2-|
|-2-5-4-3-| x3 |-2-5-4-2-|
|-2-5-4-3-|
|-2-5-4-0-|
|-0-3-2-1-|
|-0-3-2---|

alt. Intro 1B: guitar
e|------------------|
B|------------------|
G|-7-6-5-4-----7----|
D|---------5-4------|
A|---------------5-4|
E|------------------|

|---------|
|---------|
|---------|
|---------|
|---------|
|-------4-|
|-2-5-4-3-| x3 |-2-5-4-4-|
|-2-5-4-3-|
|-2-5-4-2-|
|-0-3-2-1-|
|-0-3-2---|

Intro 3A: 31x 1st bar, 1x 2nd.lead guitar
e|-----------------||-----------------|
B|-----------------||-----------------|
G|-12-9-11----9-11-||-----------------|
D|---------12------||-12-9-11----9-11-|
A|-----------------||---------12------|
E|-----------------||-----------------|

Intro 2B: end
e|-------|
B|-------|
G|-------|
D|-2-(2)-|
A|-2-(2)-|
E|-0-(0)-|

Intro 3B/verse: 2x. rhythm guitar.
e|-------|-------|-------|--------|
B|-------|-------|-------|--------|
G|-------|-------|-------|----5-2-|
D|-2-(2)-|-5--5\-|-2-(2)-|-5--5-2-|
A|-2-(2)-|-5--5\-|-2-(2)-|-5--3-0-|
E|-0-(0)-|-3--3\-|-0-(0)-|-3------|

Intro 4/Chorus: 2x. Palm-mute E5's (02xxxx)
e|---------|---------|---------|-----|---------|---------|---------|----------|
B|---------|---------|---------|-----|---------|---------|---------|----------|
G|---------|---------|---------|-3---|---------|---------|---------|----3-----|
D|-------5-|-------7-|-------5-|-3-4-|-------5-|-------7-|-------5-|----3-4-3-|
A|-2-----5-|-2-----7-|-2-----5-|-1-4-|-2-----5-|-2-----7-|-2-----5-|----1-4-3-|
E|-0-0-0-3-|-0-0-0-5-|-0-0-0-3-|---2-|-0-0-0-3-|-0-0-0-5-|-0-0-0-3-|-00---2-1-|
Verse 1: E5 (022xxx), G5 (355xxx), C5 (x355xx), A5 (x022xx)
(E5) Make us fight on the hills in the early day. (G5) Constant chill deep in-(G5\) side. (E5) Shouting gun, on they run
through the endless grey. (G5) On the fight, for they are (C5) right, yes, but (A5) who's to say?
(E5) For a hill, men will kill. Why? They do not know.. (G5) Suffered wounds test there their (G5\) pride. (E5) Men of
5, still alive through the raging glow. (G5) Gone insane from the (C5) pain that they (A5) surely know.
Chorus: Bb5 (x133xx), F#5 (244xxx), F5 (133xxx)
G A G Bb F#
G
A G Bb F# F
G A G Bb F#
G
A G Bb F# F
For whom the bell tolls.
Time marches on.
For whom the bell tolls.
Solo A/Bridge: 2x. lead guitar. Palm-mute
e|---------------------------------|----|
B|-----------------(solo figure #1)|----|
G|-12-9-11----9--------------------|----|
D|---------12---11-12-9-11----9----|-2--|
A|-------------------------12---10\|-2--|
E|---------------------------------|-0--|

figure #1.
|-------------------|
|---|
then |-------------------| then |---|
solo |-------------------| solo |-4-|
fig. |-5--5-5-5-5--5-5-5-| fig. |-4-|
#1 |-5--5-5-5-5--5-5-5-|
#1 |-2-|
|-3--3-3-3-3--3-3-3-|
|---|

Solo B/Bridge: Palm-mute. Play during repeat of Solo A on rhythm guitar.
e|----------------------------------|-----|
|-----|
|-----|
B|--------------12------10-------12-|-12~-| then |-----| then |-12~-|
G|-12-9-11----9----12-9----11-12----|-----| solo |-12~-| solo |-----|
D|---------12-----------------------|-----| fig. |-----| fig. |-----|
A|-----------------(solo figure #2)-|-----|
#2 |-----|
#2 |-----|
E|----------------------------------|-----|
|-----|
|-----|
Verse 2:
(E5) Take a look to the sky just before you die. (G5) It's the last time you (G5\) will. (E5) Blackened roar massive roar,
fills the crumbling sky. (G5) Shattered goal fills his (C5) soul with a (A5) ruthless cry.
(E5) Stranger now are his eyes to this mystery. (G5) Hears the silence so (G5\) loud. (E5) Crack of dawn, all is gone
except the will to be. (G5) Now they see, what will (C5) be, blinded (A5) eyes to see.
Chorus.

Outro 1: 8x.
G|--------|
D|-2--4-4-| x2
A|-2--4-4-|
E|-0--2-2-|

|-----|
|-5-5-|
|-5-5-|
|-3-3-|

Outro 2: final chord & lead guitar shred
G|-9-|
D|-9-|
A|-7-|
E|-0-|


Document preview For Whom The Bell Tolls (INC).pdf - page 1/1

Related documents


PDF Document marilyn manson ma05 disassociative
PDF Document marilyn manson ma01 great big white world
PDF Document marilyn manson ma06 the speed of pain
PDF Document marilyn manson ma14 coma white
PDF Document marilyn manson ma07 posthuman
PDF Document la camisa negra rhythm


Related keywords