Week 4 excersizes .pdf

File information


Original filename: Week 4 excersizes.pdf
Title: Microsoft Word - Week 4 Tabs.docx

This PDF 1.3 document has been generated by Word / Mac OS X 10.9.5 Quartz PDFContext, and has been sent on pdf-archive.com on 18/03/2017 at 13:15, from IP address 86.168.x.x. The current document download page has been viewed 214 times.
File size: 29 KB (1 page).
Privacy: public file


Download original PDF file


Week 4 excersizes.pdf (PDF, 29 KB)


Share on social networks



Link to this file download page



Document preview


Some more dexterity exercises, just expanding on what I set last week &
some other ways of getting around the bridge to Wonderwall.

Extended G Major Scale
Ascending:

|-----------------------------2-3---|
|-------------------------3-5-------|
|-------------------2-4-5-----------|
|-------------2-4-5-----------------|
|-------2-3-5-----------------------|
|---3-5-----------------------------|

Descending:

|-3-2-------------------------------|
|-----5-3---------------------------|
|---------5-4-2---------------------|
|---------------5-4-2---------------|
|---------------------5-3-2---------|
|---------------------------5-3-----|

Am Pentatonic
Ascending (Groups of 3)

|--------------------------------------5-8-|
|----------------------------------5-8-----|
|----------------------5-7-----5-7---------|
|----------5-7-----5-7-----5-7-------------|
|------5-7-----5-7-------------------------|
|--5-8-------------------------------------|

Wonderwall bridge v2 (mark out)
|---------------|
|---------------|
|-5----7--------|
|-5----7-----2--|
|-3----5-----2--|
|------------0--|
C
D
Em

Wonderwall bridge v3 (mark out)
|---------------|
|------3--------|
|-0----2--------|
|-2----0-----2--|
|-3----------2--|
|------------0--|
C
D
Em


Document preview Week 4 excersizes.pdf - page 1/1


Related documents


week 4 excersizes
alltunings
barry harris bebop line concepts
ephesians 4v8
critical
equinox 2014 training program

Link to this page


Permanent link

Use the permanent link to the download page to share your document on Facebook, Twitter, LinkedIn, or directly with a contact by e-Mail, Messenger, Whatsapp, Line..

Short link

Use the short link to share your document on Twitter or by text message (SMS)

HTML Code

Copy the following HTML code to share your document on a Website or Blog

QR Code

QR Code link to PDF file Week 4 excersizes.pdf