claras theme part b .pdf

File information


Original filename: claras-theme-part-b.pdf
Title: ClarasThemePart2.tab copy

This PDF 1.3 document has been generated by Preview / Mac OS X 10.12.5 Quartz PDFContext, and has been sent on pdf-archive.com on 06/08/2017 at 11:56, from IP address 85.76.x.x. The current document download page has been viewed 681 times.
File size: 13 KB (1 page).
Privacy: public file


Download original PDF file


claras-theme-part-b.pdf (PDF, 13 KB)


Share on social networks



Link to this file download page



Document preview


Title: Clara's Theme Part 2 (by Murray Gold)
Artist: Murray Gold
Album: Doctor Who
Author: MyNerdyLittleSideProjects
A|-------------------------|-------------------------|-------------------------|-------------------------|
E|-3-------3-------3-------|-3-------3-------3-------|-3-------3-------3-------|-3-------3-------3-------|
C|-----2-------2-------2---|-----2-------2-------2---|-----2-------2-------2---|-----2-------2-------2---|
G|-------------------------|-------------------------|-------------------------|-------------------------|
A|-2---------------2---2---|-2-----------------------|-4---------------4---5---|-7-------5-------4-------|
E|-3-------3---------------|---------3-------3-------|-3-------3---------------|-------------------------|
C|-----2-------2-----------|-----2-------2-------2---|-4---4-------4-----------|-----4-------4-------4---|
G|-------------------------|-------------------------|-------------------------|-------------------------|
A|-0-----------------------|-------------------------|-----------------2---4---|-5-------4-------2-------|
E|-2-------2-------2-------|-2-------2-------2-------|-2-------2---------------|-------------------------|
C|-1---1-------1-------1---|-----1-------1-------1---|-----1-------1-----------|-----1-------1-------1---|
G|-------------------------|-------------------------|-------------------------|-------------------------|
A|-----------------7-------|-5---------------4-------|-2---------------2---4---|-5-------4-------2-------|
E|-3-------3---------------|---------3---------------|---------3---------------|-------------------------|
C|-----4-------4-------4---|-----4-------4-------4---|-----4-------4-----------|-----4-------4-------4---|
G|-------------------------|-------------------------|-------------------------|-------------------------|
A|-------------0-----------|-------------0-----------|-------------0-----------|--------|
E|-2-------2-------2-------|-3-------3-------3-------|-4-------4-------4-------|-5------|
C|-----2---------------2---|-----2---------------2---|-----2---------------2---|-2------|
G|-------------------------|-------------------------|-------------------------|--------|
A|-5---------------5---5---|-5-----------------------|-------------------------|-7---------------5-------|
E|-6-------6---------------|---------6-------6-------|-6-------6-------6-------|-6-------6---------------|
C|-7---7-------7-----------|-----7-------7-------7---|-----7-------7-------7---|-----7-------7-------7---|
G|-0-----------------------|-------------------------|-------------------------|-------------------------|
A|-9-----------------------|-----------------10------|-9-----------------------|-------------------------|
E|-10------10------10------|-10------10--------------|---------10------10------|-10------10------10------|
C|-9---9-------9-------9---|-----9-------9-------9---|-----9-------9-------9---|-----9-------9-------9---|
G|-------------------------|-------------------------|-------------------------|-------------------------|
A|-7---------------7---7---|-7-----------------------|-----------------9---10--|-12------10------9-------|
E|-8-------8---------------|---------8-------8-------|-8-------8---------------|-------------------------|
C|-7---7-------7-----------|-----7-------7-------7---|-----7-------7-----------|-----7-------7-------7---|
G|-------------------------|-------------------------|-------------------------|-------------------------|
A|-5---------------5---5---|-5-----------------------|-----------------2---4---|-5-------4-------2-------|
E|-7-------7---------------|---------7-------7-------|-7-------7---------------|-------------------------|
C|-6---6-------6-----------|-----6-------6-------6---|-----6-------6-----------|-------------------------|
G|-------------------------|-------------------------|-------------------------|-----0-------0-------0---|
A|-----------------7-------|-5---------------4-------|-2---------------2---4---|-5-------4-------2-------|
E|-3-------3---------------|---------3---------------|---------3---------------|-------------------------|
C|-----4-------4-------4---|-----4-------4-------4---|-----4-------4-----------|-----4-------4-------4---|
G|-------------------------|-------------------------|-------------------------|-------------------------|
A|-------------0-----------|-------------0-----------|-------------0-----------|--------|
E|-2-------2-------2-------|-3-------3-------3-------|-4-------4-------4-------|-5------|
C|-----2---------------2---|-----2---------------2---|-----2---------------2---|-2------|
G|-------------------------|-------------------------|-------------------------|--------|
A|-2---------------2---2---|-2-----------------------|-----------------2---3---|-5-------3-------2-------|
E|-3-------3---------------|---------3-------3-------|-3-------3---------------|-------------------------|
C|-2---2-------2-----------|-----2-------2-------2---|-----2-------2-----------|-----2-------2-------2---|
G|-------------------------|-------------------------|-------------------------|-------------------------|
A|-3---------------3---3---|-3-----------------------|-----------------3---5---|-7-------5-------3-------|
E|-0-------0---------------|---------0-------0-------|-0-------0---------------|-------------------------|
C|-0---0-------0-----------|-----0-------0-------0---|-----0-------0-----------|-----0-------0-------0---|
G|-------------------------|-------------------------|-------------------------|-------------------------|
A|-5---2-------------------|-------------------------|-0---2---3-------2-------|-0-------2---------------|
E|---------3-------3-------|-3-------3-------3-------|-------------------------|---------3-------3-------|
C|-------------2-------2---|-----2-------0-------0---|-------------0-------0---|-----0-------2-------2---|
G|-------------------------|-------------------------|-------------------------|-------------------------|
A|---------5---------------|-------------------------|-------------------------|-------------------------|
E|-3---------------3-------|-3-------3-------3-------|-3-------3-------3-------|-3-----------------------|
C|-----2-------2-------2---|-----2-------2-------2---|-----2-------2-------2---|-----2-------------------|
G|-------------------------|-------------------------|-------------------------|-------------------------|
A|-0---0---------------2---|-2-----------0-------0---|-5-------5---------------|-7-------7---------------|
E|-0-----------0-----------|---------0---------------|-------------8-------8---|-------------10------10--|
C|-2-----------------------|-------------------------|-------------------------|-------------------------|
G|-0-------0-------0-------|-----0-----------0-------|-----0-----------0-------|-----0-----------0-------|
A|-8-------8---------------|-7------|-------------10----------|-------------10----------|
E|-------------12------12--|-8------|---------10------10------|---------10------10------|
C|-------------------------|-7------|-----12--------------12--|-----12--------------12--|
G|-----0-----------0-------|--------|-0-----------------------|-0-----------------------|
A|-------------10----------|-------------10----------|---------15-15-15----------|
E|---------10------10------|---------10------10------|-------------------10------|
C|-----12--------------12--|-----12--------------12--|-----12----------------12--|
G|-0-----------------------|-0-----------------------|-0-------------------------|
A|-------------10----------|-------------15----------|-14----------------------|-12----------------------|
E|---------10------10------|---------10------10------|---------10------10------|---------10------10------|
C|-----12--------------12--|-----12--------------12--|-----12------12------12--|-----12------12------12--|
G|-0-----------------------|-0-----------------------|-------------------------|-------------------------|
A|-10----------------------|-9-----------------------|-------------5-----------|-------------5-----------|
E|---------10------10------|---------10------10------|-----8---------------8---|-----8---------------8---|
C|-----12------12------12--|-----9-------9-------9---|-7-------7-------7-------|-7-------7-------7-------|
G|-------------------------|-------------------------|-------------------------|-------------------------|
A|-------------8-----------|-------------8-----------|-------------5-----------|-------------5-----------|
E|-----6---------------6---|-----6---------------6---|-----8---------------8---|-----8---------------8---|
C|-5-------5-------5-------|-5-------5-------5-------|-7-------7-------7-------|-7-------7-------7-------|
G|-------------------------|-------------------------|-------------------------|-------------------------|
A|-------------5-----------|-------------5-----------|-------------5-----------|-------------5-----------|
E|---------5-------5-------|---------5-------5-------|---------5-------5-------|---------5-------5-------|
C|-2-------------------2---|-----2---------------2---|-----2---------------2---|-----2---------------2---|
G|-----0-------------------|-0-----------------------|-0-----------------------|-0-----------------------|
A|-5------|--------|
E|-5------|--------|
C|-2------|--------|
G|-0------|--------|


Document preview claras-theme-part-b.pdf - page 1/1


Related documents


claras theme part b
claras theme part a
spice 1 2
djvj speaks
the2
nfmusichof 2019 induction nomination application fillable form

Link to this page


Permanent link

Use the permanent link to the download page to share your document on Facebook, Twitter, LinkedIn, or directly with a contact by e-Mail, Messenger, Whatsapp, Line..

Short link

Use the short link to share your document on Twitter or by text message (SMS)

HTML Code

Copy the following HTML code to share your document on a Website or Blog

QR Code

QR Code link to PDF file claras-theme-part-b.pdf