PDF Archive

Easily share your PDF documents with your contacts, on the Web and Social Networks.

Send a file File manager PDF Toolbox Search Help Contact



These Dreams .pdf



Original filename: These Dreams.pdf
Title: These Dreams

This PDF 1.4 document has been generated by 7-PDFWebsiteConverter, and has been sent on pdf-archive.com on 14/02/2019 at 02:52, from IP address 62.156.x.x. The current document download page has been viewed 57 times.
File size: 83 KB (3 pages).
Privacy: public file




Download original PDF file









Document preview


THESE DREAMS

( Jim Croce )

Written by Jim Croce in the key of Dm in 4/4 time
Released on the album: Life & Times ( 1973 )
Fingerstyle version for single acoustic guitar
These Dreams on Wikipedia | Live | YouTube
thumb: x
index: a
dirty: b
ring: c
pinky: d

Hammer on: h
Pull off: p
Slide up: /
Slide down: \
Arpeggio: ~~~

Bend up: )
Bend down: (
Grab but don't pick: !
Staccato: :
Mute: m

INTRO ( Keep the pinky on the b-string in the red marked part )
e------------1a-----------------1a--------|------------1a-----------------0--------|
b------------3d-----------------3d--------|------------3d-----------------3d-------|
g-------2b--------2b-------2b--------2b---|-------2b--------2b-------0---------0---|
D---0-------------------------------------|----------------------------------------|
A----------------------3c-----------------|---1a-----------------------------------|
E-----------------------------------------|----------------------3c----------------|
<- full barré ->

picking pattern:
x - a - bc - a ( 4x )

e---------------------------------3a--------|-----------1a---1ap0--------------------------|
b---2b-------3d----/----5d------------------|---\------------------3d----------------------|
g-------0----------0----------0---------0---|---------------------------2b-----------------|
D-------------------------------------------|-------0------------------------3c---2a---0---|
A---0--------2a----/----4a--------4b--------|----------------------------------------------|
E-------------------------------------------|----------------------------------------------|
<---------- Hint ---------->
e-----------0---------------0------------|----------------------------------------------|
b-----------3d--------------3d-------/---|---6d-------\---5d-------\---3d---------------|
g-------0--------0------0--------0-------|--------0------------0------------0-------0---|
D----------------------------------------|----------------------------------------------|
A---1a-----------------------------------|---5b-----------3a-----------1a---------------|
E-------------------3c-------------------|--------------------------------------3c------|
<---------------- Hint ----------------->
e-----1a--------0-------------------------|-------------0----------------------------|
b------------------------3d----------3d---|---3d------------3d---2bh3cp2b---0---2b---|
g----------0---------0--------0-----------|---------0--------------------------------|
D-----0-----------------------------------|------------------------------------------|
A---------------3c-------1a---------------|---0------------------0-------------------|
E--------------------------------3c-------|------------------------------------------|

picking pattern:
xb - a ( 3x )
xc - a
x - b - b - b - a - x - x - x

picking pattern:
x - a - bc - a ( 2x )
xb - a ( 3x )
x - a

picking pattern:
xc - a ( 2x )
xb - a - x - b
xb - a - c - b
xb - b - b

1ST VERSE
... Once we were lovers ... but ...
e------------1a-----------------1a--------|------------1a-----------------0--------| picking
b------------3d-----------------3d--------|------------3d-----------------3d-------| x - a g-------2b--------2b-------2b--------2b---|-------2b--------2b-------0---------0---|
D---0-------------------------------------|----------------------------------------|
A----------------------3c-----------------|---1a-----------------------------------|
E-----------------------------------------|----------------------3c----------------|
<- full barré ->
... somehow things have changed ...
e---------------------------------3a--------|-----------1a---1ap0--------------------------|
b---2b-------3d----/----5d------------------|---\------------------3d----------------------|
g-------0----------0----------0---------0---|---------------------------2b-----------------|
D-------------------------------------------|-------0------------------------3c---2a---0---|
A---0--------2a----/----4a--------4b--------|----------------------------------------------|
E-------------------------------------------|----------------------------------------------|
<---------- Hint ---------->

pattern:
bc - a ( 4x )

picking pattern:
xb - a ( 3x )
xc - a
x - b - b - b - a - x - x - x

||:
... now we're just lonely people ...
e-----------0---------------0------------|----------------------------------------------| picking pattern:
b-----------3d--------------3d-------/---|---6d-------\---5d-------\---3d---------------| x - a - bc - a ( 2x )
g-------0--------0------0--------0-------|--------0------------0------------0-------0---| xb - a ( 3x )
D----------------------------------------|----------------------------------------------| x - a
A---1a-----------------------------------|---5b-----------3a-----------1a---------------|
E-------------------3c-------------------|--------------------------------------3c------|
<---------------- Hint ----------------->
... trying to forget each other's names ...
e-----1a--------0-------------------------|-------------0----------------------------| picking pattern:
b------------------------3d----------3d---|---3d------------3d---2bh3cp2b---0---2c---| xc - a ( 2x )
g----------0---------0--------0-----------|---------0--------------------------------| xb - a - x - b
D-----0-----------------------------------|------------------------------------------| xb - a - c - b
A---------------3c-------1a---------------|---0------------------0-------------------| xb - b - b
E--------------------------------3c-------|------------------------------------------|

:||
CHORUS
... What came between us ? ...
e------------2c----------------2c--------|-----------0---------------------------|
b------------3d----------------3d--------|---------------3d----3d-------2b-------|
g-------2b--------2b------2b--------2b---|-------0------------------0--------0---|
D---0------------------------------------|---------------------------------------|
A---------------------2a-----------------|---------------------0--------0--------|
E----------------------------------------|---0-----------------------------------|
<-------------- Hint ------------->

picking pattern:
x - a - bc - a ( 2x )
x - a - c - b
xb - a - xb - a

... maybe we were just too young to know ...
e------------2b----------------2a--------|-----------2a----------------2b--------|
b------------3c----------------3b--------|-----------3b----------------3c--------|
g-------2a--------2a------2a--------2a---|-------4d------4d--------2a-------2a---|
D---0------------------------------------|---------------------------------------|
A---------------------4d-----------------|---2a---------------0------------------|
E----------------------------------------|---------------------------------------|
<--------- full barré ---------->
... now and then I ...
e------------3d----------------2c--------| picking pattern:
b------------0-----------------0---------| x - a - bc - a ( 2x )
g-------0---------0-------2b--------2b---|
D----------------------------------------|
A----------------------------------------|
E---3c----------------2a-----------------|
... feel the same ... and some- ...
e-----------0-----------0-----------|---------0---------------------------|
b-----------3d---------3d-----------|---0h2b------0---3d------/--5d-------|
g-------0-----------0-----------0---|----------------------0----------0---|
D---------------------------2b------|-------------------------------------|
A---------------2a------------------|---0-------------2a------/--4a-------|
E---0-------------------------------|-------------------------------------|

picking pattern:
x - a - bc - a ( 4x )

picking pattern:
x - a - bc - x - a - bc - x - a
xb - c - b - xb - a - xb - a

¼
... times at night I think I hear you calling my name ...
e------------2b----------------2a--------|-----------2a----------------2b--------|
b------------3c----------------3b--------|-----------3b----------------3c--------|
g-------2a--------2a------2a--------2a---|-------4d------4d--------2a-------2a---|
D---0------------------------------------|---------------------------------------|
A---------------------4d-----------------|---2a---------------0------------------|
E----------------------------------------|---------------------------------------|
<--------- full barré ---------->
... hmm, hmm, hmm, these ...
e------------3d----------------2c--------|
b------------0-----------------0---------|
g-------0---------0-------2b--------2b---|
D----------------------------------------|
A----------------------------------------|
E---3c----------------2a-----------------|

picking pattern:
x - a - bc - a ( 4x )

picking pattern:
x - a - bc - a ( 2x )

... dreams ... they keep me going these ...
e----------------0----------------------|--------------0---2cp0------------|
b-----------3d-------3d-----------------|----------0--------------0--------|
g-------0-----------------0---------0---|------0----------------------0----|
D------------------------------2b-------|---!--------------2b--------------|
A----------------2a---------------------|---0------------------------------|
E---0-----------------------------------|----------------------------------|

picking pattern:
x - a - b - xc - b - a - x - a
x - a - b - c - xb - b - b
!: keep 2b pressed

¼
... days ...
e-----------2c----------------------|---------0-----------------------|
b-----------3d----------------------|------------3d---3d------2b------|
g-------2b-------2b-----------------|------0--------------0-------0---|
D---0----------------------0--------|---------------------------------|
A-------------------0h2a-------2a---|-----------------0-------0-------|
E-----------------------------------|---0-----------------------------|

picking
x - a x - x x - a -

pattern:
bc - a
x
c - b - xb - a - xb - a

repeat tab 1x

¼
2ND VERSE ( same tab as 1st verse )
...
...
...
...
...
...

Once we were lovers ... but ...
that was long ago ...
we lived together then ... and ...
now we do not even say hello ...
we lived together then ... and ...
now we do not even say hello ...

CHORUS ( same tab with optional pattern variation )
... What came between us? ...
... maybe we were just too young to know ...
... now and then I ...
... feel the same ... and some- ...
... times at night I think I hear you calling my name ...
... hmm, hmm, hmm, these ...
... dreams ... they keep me going these ...
e-----------0------------0------------|------------------2cp0------------|
b-----------3d-----------3d-----------|--------------0----------0--------|
g-------0------------0------------0---|----------0------------------0----|
D----------------------------2b-------|------2b--------------------------|
A----------------2a-------------------|---0--------------0---------------|
E---0---------------------------------|----------------------------------|

picking pattern:
x - a - bc - x - a - bc - x - a
x - x - a - b - xc - b - b

¼
OUTRO
... days ...
e------------1a----------------1a-------|---1a:---------------------|
b------------3d----------------3d-------|---3d:----2b:--------------|
g-------2b-------2b-------2b-------2b---|---2b:----1a:--------------|
D---0-----------------------------------|----------1a:--------------|
A---------------------3c----------------|---1a:----0:---------------|
E---------------------------------------|---------------------------|

¼
Finish the song with a strummed D chord

¼

picking pattern:
x - a - bc - a ( 2x )
xabc ( 2x )


These Dreams.pdf - page 1/3
These Dreams.pdf - page 2/3
These Dreams.pdf - page 3/3

Related documents


PDF Document these dreams
PDF Document new yorks not my home
PDF Document operator
PDF Document the hard way every time
PDF Document alabama rain
PDF Document lovers cross


Related keywords