ibelieveinfatherchristmas ( intro only ).htm .pdf

File information


Original filename: ibelieveinfatherchristmas ( intro only ).htm.pdf
Title: I Believe In Father Christmas

This PDF 1.4 document has been generated by 7-PDFWebsiteConverter, and has been sent on pdf-archive.com on 07/11/2019 at 11:11, from IP address 82.207.x.x. The current document download page has been viewed 115 times.
File size: 72 KB (1 page).
Privacy: public file


Download original PDF file


ibelieveinfatherchristmas ( intro only ).htm.pdf (PDF, 72 KB)


Share on social networks



Link to this file download page



Document preview


I BELIEVE IN FATHER CHRISTMAS

( Emerson, Lake & Palmer )

Written by Greg Lake and Pete Sinfield in the key of D in 4/4 time
Released on the album: Works Volume 2 ( 1977 )
Released as a single in 1975
I Believe In Father Christmas on Wikipedia | Live | Video
Fingerstyle version for single acoustic guitar in Drop D tuning
thumb: x
index: a
dirty: b
ring: c
pinky: d

Hammer on: h
Pull off: p
Slide up: /
Slide down: \
Strum (Arpeggio): ~~~
Grab but don't pick: !

Bend up: )
Bend down: (
break: p
Staccato: :
Mute: m

Greg is hybrid-picking this song
For pure fingestyle, I suggest one of the following two picking patterns:
xb - x - xb - x
ac - x - ac - x
Keep your dirty on the g-string in the red marked parts

INTRO
e---10a---------12dp10a-------------!9c--------10dp9c---------\---|--!7c--------9dp7c--------------5a---------7dp5a---------\----|
b-----------------------------------------------------------------|--------------------------------------------------------------|
g---11b---------11b-------------\----9b--------9b-------------\---|---7b--------7b------------\----6b---------6b------------\----|
D----------0---------------0---------------0-------------0--------|---------0------------0----------------0------------0---------|
A-----------------------------------------------------------------|--------------------------------------------------------------|
D-----------------------------------------------------------------|--------------------------------------------------------------|
e---3a----------5dp3a----------------2c--------3dp2c----------|---0---------0---------0----------2c------------|
b-------------------------------------------------------------|------------------------------------------------|
g---4b----------4b--------------\----2b--------2b-------------|---0---------0---------2b---------2b--------/---|
D----------0---------------0---------------0-------------0----|--------0---------0----------0---------0--------|
A-------------------------------------------------------------|------------------------------------------------|
D-------------------------------------------------------------|------------------------------------------------|
e---3a----------5dp3a----------------2c--------3dp2c---------|---0---------0---------2cp0-----------------|
b------------------------------------------------------------|--------------------------------------------|
g---4b----------4b--------------\----2b--------2b------------|---0---------2b--------2b---------------/---|
D----------0---------------0---------------0-------------0---|--------0---------0------------0------------|
A------------------------------------------------------------|--------------------------------------------|
D------------------------------------------------------------|------------------------------------0-------|

¼
e---2bp0-----------|
b---3c-------------|
g---1a-------------|
D---------0--------|
A------------------|
D-------------0----|

picking pattern:
abc - x - x ( 3x )

repeat tab 2x

¼
The rest of the song is nothing exciting
I suggest to use the Intro part in one of Greg's other songs in Drop D tuning

!: keep your index on the e-string

picking pattern:
ac - x - ac - x ( 4x )

picking pattern:
ac - x - ac - x ( 3x )
ac - x - x

¼
e---3a----------5dp3a----------------2c--------3dp2c---------|---0---------0---------2bp0--------------|
b------------------------------------------------------------|-----------------------------------------|
g---4b----------4b--------------\----2b--------2b------------|---0---------2b--------2b----------------|
D----------0---------------0---------------0-------------0---|--------0---------0------------0---------|
A------------------------------------------------------------|-----------------------------------------|
D------------------------------------------------------------|------------------------------------0----|

picking pattern:
ac - x - ac - x ( 4x )

picking pattern:
ac - x - ac - x ( 3x )
ac - x - x


Document preview ibelieveinfatherchristmas ( intro only ).htm.pdf - page 1/1


Related documents


ibelieveinfatherchristmas  intro only htm
still you turn me on
cest la vie
photographsandmemories
itdoesnthavetobethatway
tomorrowsgonnabeabrighterday

Link to this page


Permanent link

Use the permanent link to the download page to share your document on Facebook, Twitter, LinkedIn, or directly with a contact by e-Mail, Messenger, Whatsapp, Line..

Short link

Use the short link to share your document on Twitter or by text message (SMS)

HTML Code

Copy the following HTML code to share your document on a Website or Blog

QR Code

QR Code link to PDF file ibelieveinfatherchristmas ( intro only ).htm.pdf