PDF Archive

Easily share your PDF documents with your contacts, on the Web and Social Networks.

Share a file Manage my documents Convert Recover PDF Search Help Contact



moonchild .pdf


Original filename: moonchild.pdf
Title: Moonchild

This PDF 1.4 document has been generated by 7-PDFWebsiteConverter, and has been sent on pdf-archive.com on 07/11/2019 at 11:11, from IP address 82.207.x.x. The current document download page has been viewed 21 times.
File size: 79 KB (1 page).
Privacy: public file




Download original PDF file









Document preview


MOONCHILD ( King Crimson )
Written by Fripp/McDonald/Lake/Giles/Sinfield in the key of Am in 4/4 time
Released on the album: In The Court of the Crimson King (1969)
Fingerstyle version for single acoustic guitar
Moonchild on Wikipedia | Studio | Lyrics
The 1st part is based on an Am chord with a descending bass line ( A - G - F# - F ) and introduces the main riff
This fingerstyle version slightly differs from the original acoustic guitar part ( presumably played by Greg Lake ),
using 4 note arpeggios instead of 3
thumb: x
index: a
dirty: b
ring: c
pinky: d

Hammer on: h
Pull off: p
Slide up: /
Slide down: \
Strum (Arpeggio): ~~~
Grab but don't pick: !

Bend up: )
Bend down: (
break: p
Staccato: :
Mute: m

||:
INTRO
e-----------------------------------|-----------------------------------|
b--------------5a--------------5a---|--------------5d--------------5d---|
g----------5a--------------5a-------|----------5d--------------5d-------|
D------7c--------------5a-----------|------4a--------------3a-----------|
A---0---------------0---------------|---0---------------0---------------|
E-----------------------------------|-----------------------------------|

picking pattern:
x - a - b - c ( 4x )

repeat tab 1x

1ST AND 2ND VERSE
e-----------------------------------|-----------------------------------|
b--------------5a--------------5a---|--------------5d--------------5d---|
g----------5a--------------5a-------|----------5d--------------5d-------|
D------7c--------------5a-----------|------4a--------------3a-----------|
A---0---------------0---------------|---0---------------0---------------|
E-----------------------------------|-----------------------------------|

picking pattern:
x - a - b - c ( 4x )

e-----------------------------------|-----------------------------------|
b--------------5a--------------5a---|--------------5d--------------5d---|
g----------5a--------------5a-------|----------5d--------------5d-------|
D------7c--------------5a-----------|------4a--------------3a-----------|
A---0---------------0---------------|---0---------------0---------------|
E-----------------------------------|-----------------------------------|
<--- Note -->

picking pattern:
x - a - b - c ( 3x )
x - x - a - b ( 1x )

repeat tab 2x

e------1a----------------------3c---|---5a:--------------------------------|
b----------1a--------------3b-------|---5a:-------8b:-------5a-------------|
g--------------2b------4d-----------|---5a:---/---7a:---\---5a------p------|
D---0---------------2a--------------|-------------9c:-------7c-------------|
A-----------------------------------|---0:--------0:--------0--------------|
E-----------------------------------|--------------------------------------|

¼

¼

¼

picking pattern:
x - a - b - c ( 2x )
x - x - a - b - c - b - b - b

e------1a----------------------3c---|---5a:--------------------------------|
b----------1a--------------3b-------|---5a:-------8b:-------5a-------------|
g--------------2b------4d-----------|---5a:---/---7a:---\---5a------p------|
D---0---------------2a--------------|-------------9c:-------7c-------------|
A-----------------------------------|---0:--------0:--------0--------------|
E-----------------------------------|--------------------------------------|

¼

¼

picking pattern:
x - a - b - c ( 2x )
x - x - a - b - c ( 1x )

¼

:||
OUTRO
e-----------------------------------|-----------------------------------|
b--------------5a--------------5a---|--------------5d--------------5d---|
g----------5a--------------5a-------|----------5d--------------5d-------|
D------7c--------------5a-----------|------4a--------------3a-----------|
A---0---------------0---------------|---0---------------0---------------|
E-----------------------------------|-----------------------------------|
Finish the song with a strummed Am chord on the 2nd fret: 002a5d5d5d

( 1x )

picking pattern:
x - c - b - a - x - a - b - c
xabc ( 3x )

¼

e--------------1a--------------0---|-------------------0-------------|
b----------1a---------------0------|--------------1b-----------------|
g------2b----------------0---------|----------2d--------------p------|
D---0---------------2b-------------|------2c------------------/------|
A----------------------------------|---0-----------------------------|
E----------------------------------|---------------------------------|

¼

( 1x )

¼

e--------------1a--------------0---|-------------------0---------------|
b----------1a---------------0------|--------------1a------1a-----------|
g------2b---------------0----------|----------2c--------------2c-------|
D---0---------------2b-------------|------2b----------------------2b---|
A----------------------------------|---0-------------------------------|
E----------------------------------|-----------------------------------|

¼

picking pattern:
x - c - b - a - x - a - b - c
xabc ( 3x )

picking pattern:
x - a - b - c ( 4x )

ritardando
repeat tab 2x

( 1x )


Document preview moonchild.pdf - page 1/1

Related documents


moonchild
itdoesnthavetobethatway
tearsinheaven
illhavetosayiloveyouinasong
still you turn me on
thesedreams


Related keywords