PDF Archive

Easily share your PDF documents with your contacts, on the Web and Social Networks.

Send a file File manager PDF Toolbox Search Help Contact



Marilyn Manson Long Hard Road Out Of Hell .pdf


Original filename: Marilyn Manson - Long Hard Road Out Of Hell.pdf
Title: _MM - long hard road
Author: godg

This PDF 1.5 document has been generated by PScript5.dll Version 5.2.2 / Acrobat Distiller 10.1.4 (Windows), and has been sent on pdf-archive.com on 06/10/2012 at 09:17, from IP address 93.132.x.x. The current document download page has been viewed 6806 times.
File size: 15 KB (1 page).
Privacy: public file




Download original PDF file









Document preview


Long Hard Road Out of Hell - Marilyn Manson by Joe Muggah & H. Nicholson
Intro A: synth arranged for guitar
e|-12---15------15----------15-|
B|-----------------------------|
G|-----------------------------|
D|-14\--12--12--15--15--15--14-|
A|-----------------------------|
E|-----------------------------|
Intro C: acoustic guitar
E|-----|-----------|-----|-----------|
B|-----|-----------|-----|-----------|
G|-0---|---------0-|-----|---------0-|
D|---8-|---8-\-3---|---8-|---8-\-3---|
A|-7---|-7---------|-7---|-7-------7-|
E|-----|-----------|-----|-----------|

Intro B/verse: bass
G|-------------|-------------|
D|-------------|-------------|
A|-------------|-------------|
E|-0-x8--3-x8--|-1-x8--0-x8--|

Verse 1: Bass & palm-muted acoust. gtr.
E5
G5
F5
E5
I wanna fly into your sun. Need faith to make me numb
Live like a teen-age Christ.
I'm a saint, got a date with suicide.

Bridge A: 2x. acoustic guitar. B5 799xxx, D5 101212xxx, C5 81010xxx
e|---------------------------|
B|---------------------------|
Bridge B: play over lyric („I wanna live..“)
G|---------------------------|
B5
D5
C5
B5
D|-9- --12-----10- --9- --|
e|----21-----17-----------|
A|-9-x8--12-x8--10-x8--9-x8--|
B|-19-----19-----19-20-19-|
E|-7- --10- –- 8- --7- --|
G|------------------------|
B5
D5
C5
B5
D5
C5
B5
Oh, Mary. Mary. To be this young is oh - so-scary. Mary. Mary. To be this young, I'm oh - so-scared. I wanna live.
D5
C5
B5
D5
C5
B5
I wanna love. But it's a long hard road out of hell. I wanna live. I wanna love. But it's a long hard road out of hell
Chorus A: electric guitar with distortion
Chorus B: Bassline
e|--------------|--------------|
E5
G5
F5
E5
B|--------------|--------------|
G|-------------|--------------|
G|-9- --12- --|-10- --9- --|
D|-------------|--------------|
D|-9-x8--12-x8--|-10-x8--9-x8--| x2
A|-------------|--------------|
A|-7- --10- --|- 8- --7- --|
E|-0-x8--3-x8--|-1-x8--12-x8--|
E|-0- ---------|--------0- --|
E5
G5
F5
E5
E5
G5
F5
E5
You never said forev-er could ever hurt like this.
Doo do-do do
do-do do do-do do doo.
Intro A.
Verse 2: Intro B bassline. Palm-muted ac. gtr. E5 02xxxx, G5 35xxxx, F5 13xxxx
E5
G5
F5
E5
G5
F5
E5
Spin my way out of hell. There's nothing left of this soul to sell. Live fast and die fast too. How many times I do
this for you.
How many times to
do this for you?
Bridge 2: p.-m. Verse 2 chords
E5
G5
F5
E5
Mary. Mary. To be this young I'm oh-so-scared. I wanna live. I wanna love. But it's a long hard road out of hell. I wanna
E5
G5
F5
E5
live. I wanna love. But it's a long hard road OUT OF HELL.
Chorus 2. Intro C: acoustic gtr. over "Doo do-do do..." lyric
Bridge 3: play Bridge A until screamed lyrics („LONG HARD..“): Chorus chords!
B5
D5
C5
B5
B5
D5
C5
B5
I wanna live. I wanna love. But it's a long hard road out of hell. I wanna live. I wanna love. But it's a long hard road
E5 G5 F5
E5
G5
F5
E5
OUT OF HELL.
LONG HARD ROAD OUT OF HELL! I wanna live. I wanna love. But it's a long hard road...
Chorus 3: 2x.

E5
G5
F5
E5
Sell my soul for anything, anything but you.

Outro: A#5 688xxx, D5 x577xx, G5 35xxxx. Octave shifting effects on last 3 bars
e|----------|----------------------------|
|--------18^-|
|-------15-|
B|----------|----------------------------|
|-17^~-------|
|-17-------|
G|-9-9-7--9-|-------------9-9-7----------|
|-----16-----|
|----16----|
D|-9-9-7--9-|-------------9-9-7-8--------| x6 |------------| x2 |----------|
A|-7-7-5--7-|-x--x-x-x-x--7-7-5-8----5---|
|------------|
|----------|
E|----------|-x--x-x-x-X--------6--0-3-0-|
|------------|
|----------|


Document preview Marilyn Manson - Long Hard Road Out Of Hell.pdf - page 1/1

Related documents


PDF Document marilyn manson long hard road out of hell
PDF Document marilyn manson ma04 rock is dead
PDF Document very special chords
PDF Document marilyn manson ma14 coma white
PDF Document white stripes seven nation army
PDF Document marilyn manson ma06 the speed of pain


Related keywords