PDF Archive

Easily share your PDF documents with your contacts, on the Web and Social Networks.

Share a file Manage my documents Convert Recover PDF Search Help Contact



scarboroughfair .pdf


Original filename: scarboroughfair.pdf
Title: Scarborough Fair

This PDF 1.4 document has been generated by 7-PDFWebsiteConverter, and has been sent on pdf-archive.com on 11/11/2019 at 23:56, from IP address 94.134.x.x. The current document download page has been viewed 30 times.
File size: 78 KB (2 pages).
Privacy: public file




Download original PDF file









Document preview


SCARBOROUGH FAIR
Traditional
Released on
Released as
Fingerstyle
Scarborough
thumb: x
index: a
dirty: b
ring: c
pinky: d

( Simon & Garfunkel )

English ballad in 3/4 time arranged by Paul Simon
the album: Parsley, Sage, Rosemary and Thyme ( 1966 )
a single ( 1968 )
version for single acoustic guitar
Fair on: Wikipedia | Studio | Live
Hammer on: h
Pull off: p
Slide up: /
Slide down: \
Arpeggio: ~~~

Bend up: )
Bend down: (
Grab but don't pick: !
Staccato: :
Mute: m

INTRO ( Gsus2maj7, Asus2 )
e-------0-----------------------|-------0-----------------------|
b----------------------3a-------|----------------------0--------|
g------------0--------------0---|-----------2c-------------2c---|
D----------------4b-------------|----------------2b-------------|
A---0---------------------------|---0---------------------------|
E-------------------------------|-------------------------------|

picking pattern:
x - c - a - x - b - a

( 2x )

repeat tab 1x

1ST VERSE
... Are you going to ...
e-------0-----------------------|-------0-----------------------|
b----------------------3a-------|----------------------0--------|
g------------0--------------0---|-----------2c-------------2c---|
D----------------4b-------------|----------------2b-------------|
A---0---------------------------|---0---------------------------|
E-------------------------------|-------------------------------|
... Scarborough ...
e-------------------------------|
b---0--------------1a----0------|
g--------0---------0-----0------|
D-------------0----2b----0------|
A-------------------------------|
E---3d--------------------------|

picking pattern:
x - c - a - x - b - a

( 2x )

picking pattern:
x - c - a - x - b - a

( 2x )

picking pattern:
x - c - a - x - b - a

( 2x )

picking pattern:
x - c - a - x - b - a

( 2x )

picking pattern: Hint
xb - a - x - xab - xab

¼
... Fair? ...
e-------0-----------------------|-------0-----------------------|
b----------------------3a-------|----------------------0--------|
g------------0--------------0---|-----------2c-------------2c---|
D----------------4b-------------|----------------2b-------------|
A---0---------------------------|---0---------------------------|
E-------------------------------|-------------------------------|
... parsley, sage, rose- ...
e-------0-----------------------|-------0-----------------------|
b----------------------1a-------|----------------------0--------|
g------------0--------------0---|-----------2c-------------2c---|
D----------------2b-------------|----------------2b-------------|
A---3d--------------------------|---0---------------------------|
E-------------------------------|-------------------------------|
... mary and ...
e----0--------2b-------------------|
b------------------------3c--------|
g--------0---------2a---------2a---|
D-------------0----------0---------|
A---3d-----------------------------|
E----------------------------------|

picking pattern:
xc - a - xc - a - xb - a

... thyme ... re- ...
e-------0-----------------------|-------0-----------------------|
b----------------------3a-------|----------------------0--------|
g------------0--------------0---|-----------2c-------------2c---|
D----------------4b-------------|----------------2b-------------|
A---0---------------------------|---0---------------------------|
E-------------------------------|-------------------------------|
... member me to ...
e------0------------------------|-------0-----------------------|
b------------0------------------|----------------------1a-------|
g----------------2c-------------|-----------0--------------0----|
D-------------------------------|----------------2b-------------|
A---0------------------0---2b---|---3c--------------------------|
E-------------------------------|-------------------------------|
... one who lives ...
e---0-------------------------------|
b-------------3d---------1a---------|
g--------0----------0----------0----|
D-----------------------------------|
A---3c--------2b---------0----------|
E-----------------------------------|

picking pattern:
xc - a - xb - a - xb - a

repeat tab 1x

picking pattern:
x - c - b - a - x - x
x - c - a - x - b - a

... there ...
e-------------------------------|-------------------------|
b---0------------0-----1a---0---|---1a-----0h1ap0---------|
g-------0--------------0----0---|---0----------------0----|
D------------0---------2b---0---|---2b--------------------|
A-------------------------------|-------------------------|
E---3c--------------------------|-------------------------|

¼
... she once ...
e-------0------------------------|
b----------------------1a--------|
g------------2c-------------2c---|
D-----------------2b-------------|
A---0----------------------------|
E--------------------------------|

¼

picking pattern: Hint
xb - a - x - b - xab - xab - xab - b - b

¼

picking pattern:
x - c - a - x - b - a

... was ... a ...
e--------------------------------|------------------------|
b---0------------0-----0----1a---|---0------0h1ap0--------|
g-------0--------------0----0----|---0----------------0---|
D------------0---------0----2b---|---0--------------------|
A--------------------------------|------------------------|
E---3c---------------------------|------------------------|

¼

¼

picking pattern: Hint
xb - a - x - b - xab - xab - xab - b - a

¼

... true love of mine ...
e-------0-----------------------|-------0-----------------------|
b----------------------3a-------|----------------------0--------|
g------------0--------------0---|-----------2c-------------2c---|
D----------------4b-------------|----------------2b-------------|
A---0---------------------------|---0---------------------------|
E-------------------------------|-------------------------------|

picking pattern:
x - c - a - x - b - a

( 2x )

repeat tab 1x

2ND VERSE ( same tab as 1st verse )
...
...
...
...
...
...
...
...
...
...
...
...

Tell her to make me a ...
cambric ...
shirt ...
parsley, sage, rose- ...
mary and ...
thyme ... wi- ...
thout no seams ...
nor needle...
work ...
then she'll ...
be a ...
true love of mine ...

3RD VERSE
...
...
...
...
...
...
...
...
...
...
...
...

Tell her to find me an ...
acre of ...
land ...
parsely, sage, rose- ....
mary and ...
thyme ... be ...
tween the salt water ....
and the sea ...
strand ...
then she'll ...
be a ...
true love of mine ...

4TH VERSE
...
...
...
...
...
...
...
...
...
...
...
...

Tell her to reap it in a ...
sickle of ...
leather ...
parsely, sage, rose- ...
mary and ...
thyme ... and to ...
gather it all in ...
a bunch of ...
heather ...
then she'll ...
be a ...
true love of mine ...

1ST VERSE ( same tab )
OUTRO ( Gsus2maj7, D ( add11 ), Cmaj9, Am )
e-------0-----------------------|-------0---------------------------|
b----------------------3a-------|----------------------3a-----------|
g------------0--------------0---|-----------0---------------0-------|
D----------------4b-------------|----------------4b-----------------|
A---0---------------------------|---5d--------------------------\---|
E-------------------------------|-----------------------------------|
e-------0-----------------------|--------0------------------|
b----------------------0--------|-------1a------------------|
g------------0--------------0---|------2c-------------------|
D----------------0--------------|-----2b--------------------|
A---3d--------------------------|----0----------------------|
E-------------------------------|---------------------------|

¾

picking pattern:
x - c - a - x - b - a

picking pattern:
x - c - a - x - b - a - x ~~~

( 2x )


scarboroughfair.pdf - page 1/2
scarboroughfair.pdf - page 2/2

Related documents


scarboroughfair
moonchild
itdoesnthavetobethatway
operator
ibelieveinfatherchristmas  intro only htm
tearsinheaven


Related keywords